Misfits - Forbidden Zone Chords & Tabs

 

Forbidden Zone Chords & Tabs

Misfits Chords & Tabs

Version: 1 Type: Tab 0 ratings
1 star 2 stars 3 stars 4 stars 5 stars
comments

Forbidden Zone Tab

 (Intro)
e|-----------------------------------------------------------------------------|
B|-----------------------------------------------------------------------------|
G|-5-5-5-5-5-5-5-5--5-4-2--2-2-2-2-2-2-2-2-------------------------------------|
D|-5-5-5-5-5-5-5-5--5-4-2--2-2-2-2-2-2-2-2-5-3--3-3-3-3-3-3-3-3--3-4-5---------|
A|-3-3-3-3-3-3-3-3--3-2-0--0-0-0-0-0-0-0-0-5-3--3-3-3-3-3-3-3-3--3-4-5---------|
E|-----------------------------------------3-1--1-1-1-1-1-1-1-1--1-2-3---------|

 (Verse 1)
e|-----------------------------------------------------------------------------|
B|-----------------------------------------------------------------------------|
G|-5-5-5-5-5-5-5-5-2-2-2-2-2-2-2-2---------------------------------------------|
D|-5-5-5-5-5-5-5-5-2-2-2-2-2-2-2-2-3-3-3-3-3-3-3-3-3-5-5-5-5-5-5-5-5-----------|
A|-3-3-3-3-3-3-3-3-0-0-0-0-0-0-0-0-3-3-3-3-3-3-3-3-3-5-5-5-5-5-5-5-5-----------|
E|---------------------------------1-1-1-1-1-1-1-1-1-3-3-3-3-3-3-3-3-----------|
[ Tab from: http://www.guitartabs.cc/tabs/m/misfits/forbidden_zone_tab.html ]
 (Pre Chorus)
e|-----------------------------------------------------------------------------|
B|-----------------------------------------------------------------------------|
G|-----------------------------------------------------------------------------|
D|-3-3-3-3-3-3-3-3--3-4-5--5-5-5-5-5-5-5-5-5--5-4-3--3-3-3-3-3-3-3-3-----------|
A|-3-3-3-3-3-3-3-3--3-4-5--5-5-5-5-5-5-5-5-5--5-4-3--3-3-3-3-3-3-3-3----0------|
E|-1-1-1-1-1-1-1-1--1-2-3--3-3-3-3-3-3-3-3-3--3-2-1--1-1-1-1-1-1-1-1-3-2--4----|

 (Chorus)
e|-----------------------------------------------------------------------------|
B|-----------------------------------------------------------------------------|
G|-7-7-7-7-7-7-7-7-------------------------------------------------------------|
D|-7-7-7-7-7-7-7-7-5-5-5-5-7-7-7-7---------------------------------------------|
A|-5-5-5-5-5-5-5-5-5-5-5-5-7-7-7-7---------------------------------------------|
E|-----------------3-3-3-3-5-5-5-5---------------------------------------------|

 (Post Chorus)
e|-----------------------------------------------------------------------------|
B|-----------------------------------------------------------------------------|
G|-----------------------------------------------------------------------------|
D|-5-5-5-5-5-5-5-5-7-7-7-7-7-7-7-7---------------------------------------------|
A|-5-5-5-5-5-5-5-5-7-7-7-7-7-7-7-7---------------------------------------------|
E|-3-3-3-3-3-3-3-3-5-5-5-5-5-5-5-5---------------------------------------------|

Order:
Intro              1x
Verse 1            3x
Pre Chorus         1x
Chorus             3x
Post Chorus        1x
Intro              1x
Verse 1            3x
Pre Chorus         1x
Chorus             3x
Post Chorus        1x
Chorus             3x
Post Chorus        1x
Intro              2x
Comments