Misfits - Forbidden Zone Chords & Tabs

 

Forbidden Zone Chords & Tabs

Misfits Chords & Tabs

Version: 1 Type: Bass Tab 0 ratings
1 star 2 stars 3 stars 4 stars 5 stars
comments

Forbidden Zone Bass Tab

   
Song:Forbidden Zone
Artist:Misfits
Album:Famous Monsters
Tabbed by:Tim & Sean (sifu_sean2@hotmail.com)

I don't know why nobody's tabbed this yet but i'm pretty sure this is about 
99% correct.

Tune down all strings a whole step!(*means hold)

Intro (00:00)

G:----------------------------------------------------------------
D:----------------------------------------------------------------
A:444444444444-43-1-111111111111-1--------------------------------
E:--------------------------------43-222222222222-23-444444444444

Verse (00:08)

G:-----------------------------------------------------------------
D:-----------------------------------------------------------------
A:444444444444444--111111111111111---------------------------------
E:---------------------------------222222222222222--444444444444444

Pre-chorus (00:25)

G:-----------------------------------------------------
D:-----------------------------------------------------
A:-----------------------------------------------------
E:222222222222-3-44444444444-3-2-222222222222-3-4-3-6-5

[ Tab from: http://www.guitartabs.cc/tabs/m/misfits/forbidden_zone_btab.html ]
Chorus (00:33)
           X3
G:-----------------------------
D:-----------------------------
A:66666666666666---------------
E:--------------4-44444-6-66666

G:-----------------------------
D:-----------------------------
A:-----------------------------
E:44444444444444-66666666666666


Pre-Verse (00:50)

G:-----------------------------------------------------
D:-----------------------------------------------------
A:666666666-65-33333333333-31--------------------------
E:----------------------------44444444444-3-66666666666

Go back and play verse(00:59)


Play pre-chorus again (1:15)


Back to chorus (1:23)


Play chorus again (1:40)
But this time after you play the first part the second part gos like this,

G:-----------------------------------------------------------
D:-----------------------------------------------------------
A:-----------------------------------------------------------
E:44444444444444-66666666666666-44444444444444-66666666666666


Play Pre-Verse twice now (2:01-2:17)

End (2:18)

G:-------
D:-------
A:-------
E:6*--6\1


That's it!It's kind of easy when you get the hang of it and get the right 
timing.Have Fun!

Comments