Misfits - Fiend Without A Face Chords & Tabs

 

Fiend Without A Face Chords & Tabs

Misfits Chords & Tabs

Version: 1 Type: Tab 0 ratings
1 star 2 stars 3 stars 4 stars 5 stars
comments

Fiend Without A Face Tab

   
FIEND WITHOUT A FACE
by The Misfits
Tabbed by Dan Croy (Triplasphere@aol.com)


INTRO (listen to song for timing)
-------------|--------------------|
-------------|--------------------|
-----2---4---|-----2---4------3---|
-2---2---4---|-2---2---4------3---|
-2---0---2---|-2---0---2------1---|
-0-----------|-0------------------|

VERSE 2x (play each chord 8 times)
-----------------------------------|
-----------------------------------|
-----4---2---4---2-------4---4/----|
-2---4---2---4---2---2---4---4/----|
-2---2---0---2---0---2---2---2/----|
-0-------------------0-------------|

CHORUS (play each chord 8 times)
-------------|---------------------|
-------------|---------------------|
-----2---4---|-----2---4---4---3---|
-2---2---4---|-2---2---4---4---3---|
-2---0---2---|-2---0---2---2---1---|
-0-----------|-0-------------------|
[ Tab from: http://www.guitartabs.cc/tabs/m/misfits/fiend_without_a_face_tab.html ]
VERSE 2x (play each chord 8 times)
-----------------------------------|
-----------------------------------|
-----4---2---4---2-------4---4/----|
-2---4---2---4---2---2---4---4/----|
-2---2---0---2---0---2---2---2/----|
-0-------------------0-------------|

CHORUS (play each chord 8 times)
-------------|-----------------------|
-------------|-----------------------|
-----2---4---|-----2---4---4---3---3-|
-2---2---4---|-2---2---4---4---3---3-|
-2---0---2---|-2---0---2---2---1---1-|
-0-----------|-0---------------------|
____3x_______|

OUTRO (8x)
---------------------------------|
---------------------------------|
-----------------4-4-4-4-2-2-2-2-|
-222-2-2-2-2-2---4-4-4-4-2-2-2-2-|
-222-2-2-2-2-2---2-2-2-2-0-0-0-0-|
-000-0-0-0-0-0-------------------|
===========
BAND:The Misfits
SONG:Fiend Without A Face
ALBUM:Cuts From the CryptINTRO/CHORUS:
E    A     C
E    A     C       B

VERSE:
E    B
A    B
A    E   B

END:
E     B  A  (X8)
Comments