Misfits - Fiend Without A Face Chords & Tabs

 

Fiend Without A Face Chords & Tabs

Misfits Chords & Tabs

Version: 1 Type: Bass Tab 0 ratings
1 star 2 stars 3 stars 4 stars 5 stars
comments

Fiend Without A Face Bass Tab

   
Misfits - Fiend Without A Face
Bassist: Jerry Only
Tuning (E,A,D,G)

Intro

G-------------|--------------------|
D-------------|--------------------|
A-----1---3---|-----1---3------2---|
E-1-----------|-1------------------|

Verse

G-------------------------------------------------------------------|
D-------------------------------------------------------------------|
A---------3-3-3-3-1-1-1-1--------3-3-3-3-1-1-1-1----3-3-3-3-3-3-3-3-|
E-1-1-1-1----------------1-1-1-1------------------------------------| x's 2

Chorus
[ Tab from: http://www.guitartabs.cc/tabs/m/misfits/fiend_without_a_face_btab.html ]
G---------------------------------|---------------------------------------------------|
D---------------------------------|---------------------------------------------------|
A---------1-1-1-1-3-3-3-3-3-3-3-3-|---------1-1-1-1 3-3-3-3-3-3-3-3-2-2-2-2-2-2-2-2---|
E-1-1-1-1-------------------------|-1-1-1-1-------------------------------------------|

Verse

G-------------------------------------------------------------------|
D-------------------------------------------------------------------|
A---------3-3-3-3-1-1-1-1--------3-3-3-3-1-1-1-1----3-3-3-3-3-3-3-3-|
E-1-1-1-1----------------1-1-1-1------------------------------------| x's 2

Chorus
              x's 3
G---------------------------------|---------------------------------------------------|
D---------------------------------|---------------------------------------------------|
A---------1-1-1-1-3-3-3-3-3-3-3-3-|---------1-1-1-1 3-3-3-3-3-3-3-3-2-2-2-2-2-2-2-2---|
E-1-1-1-1-------------------------|-1-1-1-1-------------------------------------------|

Outro

G---------------------------------|
D---------------------------------|
A-----------------3-3-3-3-1-1-1-1-|
E-111-1-1-1-1-1-------------------|
Comments