Misfits - Earth Ad Chords & Tabs

 

Earth Ad Chords & Tabs

Misfits Chords & Tabs

Version: 2 Type: Tab 0 ratings
1 star 2 stars 3 stars 4 stars 5 stars
comments

Earth Ad Tab

   
Band: misfits
Song: Earth AD

Tabber: John Cukras
Email: riffreaper@yahoo.com

Tuning: normal

Riff 1:
E-------------|
B-------------|
G-------------|
D-------------|
A-3--2--5--4--| x's 2
E-------------|
[ Tab from: http://www.guitartabs.cc/tabs/m/misfits/earth_ad_tab_ver_2.html ]
Riff 2:  A              B
E------------------|-----------|
B------------------|-----------|
G------------------|-----------|
D-55-44-66---------|-22-55-77--|
A-33-22-44  x's 4--|-22-33-55--|  x's 2
E------------------|-00--------|

Riff 2: A x's 2 , B

Riff 3:
E--------------------------------------------------|
B--------------------------------------------------|
G--------------------------------------------------|
D-44-55-44-----------44-55-44-------------------2--|
A-22-33-22-33-33-33--22-33-22---33-33-33--------2--|
E----------11-11-11-------------11-11-11 x's 3--0--|

Riff 2: A , B

Riff 2: A x's 2 , B

Riff 3

Riff 3
Comments