Misfits - Dust To Dust Chords & Tabs

 

Dust To Dust Chords & Tabs

Misfits Chords & Tabs

Version: 1 Type: Tab 0 ratings
1 star 2 stars 3 stars 4 stars 5 stars
comments

Dust To Dust Tab

Misfits "Dust to Dust"                     P=Pound on the string
                                           X=Open string
                                           /=Slide up the string
Intro
1-----------------------------     
2-----------------------------
3-----------------------------          (Play 4 times)
4--4--2-2---5-----------------
5--2--2-2---5-----------------
6-----x-x---3--3p5-3p5-3p5-3p5


Verse 1
1------------------------------
2------------------------------
3------------------------------         (Play Verse 1 Four Times then play 
4--4--2-2---5------------------          Play the intro 4 Times)
5--2--2-2---5------------------
6-----x-x---3--(3p5-3p5-3p5-3p5)
                 (Palm Mute)
[ Tab from: http://www.guitartabs.cc/tabs/m/misfits/dust_to_dust_tab.html ]
Chorus
1-----------------------------
2-----------------------------
3-----------------------------          (Play 4 Times)
4--7-7-7-7-7--5-5-5-5--2-2-2-2
5--5-5-5-5-5--5-5-5-5--2-2-2-2
6-------------3-3-3-3--x-x-x-x




Verse 2
1-----------------------------
2-----------------------------
3-----------------------------         (Play Verse 2 Four Times then Play
4-----------------------------          the Intro 4 Times)
5-----------------------------
6--x-x-x-2-2-2-3-3-3-2-2-2-1-1
     ^All Palm muted !!!!^


Bridge
1--------------------
2--------------------
3--------------------                   (Play 1 Time!! Then Play the Chorus
4--------------------                    4 Times!!)
5--1/2--2/4--4/5--5/7
6--------------------

Outro
Play the Intro 3 Times then For the forth Time play it slow with out
The string pound !!!!!!




                      This is the only and 100% corect version of Dust to Dust 
                      On this website if u have any questions or comments 
                      E-mail me at StaticX1515@aol.com
Comments