Misfits - Dream Lover Chords & Tabs

 

Dream Lover Chords & Tabs

Misfits Chords & Tabs

Version: 1 Type: Tab 0 ratings
1 star 2 stars 3 stars 4 stars 5 stars
comments

Dream Lover Tab

   
band: misfits
song: dream lover

Tabber: John Cukras
Email: riffreaper@yahoo.com

Tuning: normal

Intro:
E--------------
B--------------
G--------------
D-5-5555-------
A-3-3333-7-7777
E--------5-5555 x's 2

Riff 1:
E-----------------------------------
B-----------------------------------
G-----------------------------------
D-5-------5-------------------------
A-3-33333-3-333333--7--------7------
E-------------------5-555555-5-55555  x's 2
pm  .....   ......    ......   .....
[ Tab from: http://www.guitartabs.cc/tabs/m/misfits/dream_lover_tab.html ]
Riff 2:
E----------------------------------------------------------------------
B----------------------------------------------------------------------
G----------------------------------------------------------------------
D------55--------------55-7777777-55555-------33333-------555555-------
A-1111-33------55-1111-33-5555555-33333-77777-11111-55555-333333-333333
E---------1111-33-----------------------55555-------33333--------------
pm....    ....    ....                                           ......

Riff 1

Riff 2 (end with C chord this time)

Riff 3:
E---------------------------------------------
B---------------------------------------------
G---------------------------------------------
D-777777777-555555555-99999999----------------
A-555555555-333333333-77777777--------55555555
E------------------------------pause--33333333

Riff 1

Riff 2 (C chord)

Riff 4:
E------------------------------------
B------------------------------------
G------------------------------------
D-9--------9--------7--------7-------
A-7-777777-7-777777-5-555555-5-555555
E------------------------------------ x's 2
pm  ......   ......   ......   ......

Riff 2 (C chord)

End:
E-------------------------------------
B-------------------------------------
G-------------------------------------
D-555555--------555555---------------5
A-333333-555555-333333-77777---------3
E--------333333--------55555 x's 2----
Comments