Misfits - Dr Phibes Rises Again Chords & Tabs

 

Dr Phibes Rises Again Chords & Tabs

Misfits Chords & Tabs

Version: 4 Type: Tab 0 ratings
1 star 2 stars 3 stars 4 stars 5 stars
comments

Dr Phibes Rises Again Tab

   
                       DR. PHIBES RISES AGAIN
                    ''''''''''''''''''''''''''''
                             MISFITS
                     tabbed by: matt goolsby


e|----------------------------------------------------------|
b|----------------------------------------------------------|
g|----------------------------------------------------------|
d|----------------------------------------------------------|  intro
a|-1--3---1--4---1--3---1--4---6--4---6--3---4--3---4--6----|
D|-1--1---1--2---1--1---1--2---4--2---6--1---2--1---4--6----|

|----------------------------------------------------------------|
|----------------------------------------------------------------| end
|----------------------------------------------------------------| intro
|----------------------------------------------------------------|
|-1--3---1--4---1--3---1--4---6--4---6--3---4--3---4--6----4--3--|
|-1--1---1--2---1--1---1--2---4--2---6--1---2--1---4--6----4--3--|

|-----------------------------------------------| (1.
|-----------------------------------------------|
|-----------------------------------------------|   bridge/chorus
|-----3/4/3-------3/4/3-------1/3/1-------------|
|-6-6-------6-2-6-------6-4-4-------4-1--2-4-2--|
|-----------------------------------------------|

|-----------------------------------------------| (2.
|-----------------------------------------------|
|-----------------------------------------------|
|-----3/4/3-------3/4/3-------1/3/1-------------|
|-6-6-------6-2-6-------6-4-4-------4-1--2-4-2--|
|-----------------------------------------------|

|----------------------------------------------| (3.
|----------------------------------------------|
|----------------------------------------------|
|-----3/4/3-------3/4/3-------1/3/1------------|
|-6-6-------6-2-6-------6-4-4-------4-1--2-4-2-|
|----------------------------------------------|

|------------------------------------------------------| (4.
|------------------------------------------------------|
|------------------------------------------------------|
|-----3/4/3-------3/4/3-------1/3/1--------------------| end bridge/
|-6-6-------6-2-6-------6-4-4-------4-1--2-4-4-2/1-0-1-| chorus
|------------------------------------------------------|

|-----------------------------------------------------|
|-----------------------------------------------------|
|-----------------------------------------------------| verse a
|-"3"---------"3"---------"3"-------6-666666----------|
|-"1"-2/1-0-1-"1"-2/1-0-1-"1"-2/1-0-4-444444-6-666666-|
|--------------------------------------------6-666666-|
 |x10|       |x10|       |x10|

|-----------------------------------------------------|
|-----------------------------------------------------|
|-----------------------------------------------------|
|-"3"---------"3"---------"3"-------6-666666----------|
|-"1"-2/1-0-1-"1"-2/1-0-1-"1"-2/1-0-4-444444-6-666666-|
|--------------------------------------------6-666666-|
 |x10|       |x10|       |x10|

|---------------|
|---------------|
|---------------|
|-4-444444-3-33-|
|-2-222222-1-11-|
|---------------|


|---------------------------------------------------------------|
|------------------------------------2--------------------------|
|-----------------1--------3-3-1/3-4---4-3--------------1-------|
|-------3-3-1/3-4---4-3----1-1-------------4--3-3-1/3-4---4-3---| verse b
|-2/1-0-1-1-------------4---------------------1-1-------------4-|
|---------------------------------------------------------------|

|------------------------------------------------------|
|----------------------------------------------2-------|
|----------------------------1-------3-3-1/3-4---4-3---|
|-4-444444-3-33----3-3-1/3-4---4-3---1-1-------------4-|
|-2-222222-1-11-6-61-1-------------4-------------------|
|---------------6-6------------------------------------|

|-------------------------------------|
|-------------------------------------|
|-----------1-------------------------|
|-3-3-1/3-4---3-4---4-444444-3-333333-|  end verse b, back to bridge/
|-1-1-------------4-2-222222-1-111111-|  chorus x2
|-------------------------------------|

|------------|
|------------|
|------------|  riff a
|-7--6--4--6-|
|-5--4--2--4-|
|------------|

|-------------------------------------------------|
|-------------------------------------------------|
|-------------------------------------------------| verse c
|-"6666-6666"-4-6-7-6-4-6-"6666-6666"-4-6-7-6-4-6-|
|-"4444-4444"-2-4-5-4-2-4-"4444-4444"-2-4-5-4-2-4-|
|-------------------------------------------------|

|-----------------------------------------|
|-----------------------------------------|
|-----------------------------------------|
|-"6666-6666"-4-6-7-6-4-5-------3-------6-|
|-"4444-4444"-2-4-5-4-2-3---6---1---4---4-|
|---------------------------6-------4-----|

|-------------------------------------------------|
|-------------------------------------------------|
|-------------------------------------------------|
|-"6666-6666"-4-6-7-6-4-6-"6666-6666"-4-6-7-6-4-6-|
|-"4444-4444"-2-4-5-4-2-4-"4444-4444"-2-4-5-4-2-4-|
|-------------------------------------------------|
[ Tab from: http://www.guitartabs.cc/tabs/m/misfits/dr_phibes_rises_again_tab_ver_4.html ]
|-----------------------------------------|
|-----------------------------------------|
|-----------------------------------------|
|-"6666-6666"-4-6-7-6-4-5-------3-------6-|
|-"4444-4444"-2-4-5-4-2-3---6---1---4---4-|
|---------------------------6-------4-----|

|-------------------------------------------------|
|-------------------------------------------------|
|-------------------------------------------------|
|-"6666-6666"-4-6-7-6-4-6-"6666-6666"-4-6-7-6-4-6-|
|-"4444-4444"-2-4-5-4-2-4-"4444-4444"-2-4-5-4-2-4-|
|-------------------------------------------------|

|-----------------------------------------|
|-----------------------------------------|
|-----------------------------------------|
|-"6666-6666"-4-6-7-6-4-5-------3-------6-|
|-"4444-4444"-2-4-5-4-2-3---6---1---4---4-|
|---------------------------6-------4-----|

|-------------------------------------------------|
|-------------------------------------------------|
|-------------------------------------------------|
|-"6666-6666"-4-6-7-6-4-6-"6666-6666"-4-6-7-6-4-6-|
|-"4444-4444"-2-4-5-4-2-4-"4444-4444"-2-4-5-4-2-4-|
|-------------------------------------------------|

|-----------------------------------------|
|-----------------------------------------|
|-----------------------------------------|
|-"6666-6666"-4-6-7-6-4-5-------3-------6-|
|-"4444-4444"-2-4-5-4-2-3---6---1---4---4-|
|---------------------------6-------4-----|

|-------------------------------------------------|
|-------------------------------------------------|
|-------------------------------------------------|
|-"6666-6666"-4-6-7-6-4-6-"6666-6666"-4-6-7-6-4-6-|
|-"4444-4444"-2-4-5-4-2-4-"4444-4444"-2-4-5-4-2-4-|
|-------------------------------------------------|

|----------------------------------------|
|----------------------------------------|
|----------------------------------------|  end verse c
|-"6666-6666"-4-6-7-6-4-5-------3--------|
|-"4444-4444"-2-4-5-4-2-3---6---1---4--3-|
|---------------------------6-------4--3-|

|---------------------------------------------------------------|
|---------------------------------------------------------------|
|---------------------------------------------------------------| mid/tro
|---------------------------------------------------------------|
|-1--3---1--4---1--3---1--4---6--4---6--3---4--3---4--6---4--3--|
|-1--1---1--2---1--1---1--2---4--2---6--1---2--1---4--6---4--3--|

|----------------------------------------------------------------| chorus/
|----------------------------------------------------------------| chords
|----------------------------------------------------------------|
|-8-88888-4-44-4444-6-666666-3-4-6-4-8-88888-4-44-4444-6-666666--|
|-6-66666-2-22-2222-4-444444-1-2-4-2-6-66666-2-22-2222-4-444444--|
|----------------------------------------------------------------|

|--------------------------------------------------------------|
|--------------------------------------------------------------|
|--------------------------------------------------------------|
|-3-4-6-4-8-88888-4-44-4444-6-666666-3-4-6-4-8-88888-4-44-4444-|
|-1-2-4-2-6-66666-2-22-2222-4-444444-1-2-4-2-6-66666-2-22-2222-|
|--------------------------------------------------------------|

|----------------------|
|----------------------|
|----------------------|  end chorus/chords
|-6-666666-3-4-6-6-3-3-|  back to verse b
|-4-444444-1-2-4-4-1-1-|
|----------------------|

|-------------------------------------------------------|
|-------------------------------------------------------|
|-3-"33333333333333"-------------------3-33333333333333-| ending
|-1-"11111111111111"-4-444444-3-333333-1-11111111111111-|
|--------------------2-222222-1-111111------------------|
|-------------------------------------------------------|

|-------------------------------------------------------|
|-------------------------------------------------------|
|-------------------------------------------------------|
|-4-444444-3-333333-6-666666-4-444444-4-444444-3-333333-|
|-2-222222-1-111111-4-444444-2-222222-2-222222-1-111111-|
|-------------------------------------------------------|

|---------------------------------------------------------------|
|---------------------------------------------------------------|
|-3-33333333333333----------------------------------------------|
|-1-11111111111111-4-444444-3-333333-6-666666-4-"4--4--4--4--4"-|
|------------------2-222222-1-111111-4-444444-2-"2--2--2--2--2"-|
|---------------------------------------------------------------|
                                                    triplets
|-------------------------------|
|-------------------------------|
|-------------------3-XX-3-XX-3-|
|-4-444444-3-333333-1-XX-1-XX-1-|
|-2-222222-1-111111-------------|
|-------------------------------|


SONG ORDER
''''''''''''
intro
bridge/chorus 1,2,3,4
verse a
verse b
bridge/chorus 1,4
verse a (+1 extra)
verse b
bridge/chorus 1,2,3,3
riff a
verse c
mid/tro
bridge/chorus 1,2,3,3
chorus/chords
verse b
ending

                      its a long song, but once you get it down its
real easy to play, and sounds badass. one of the greatest misfits
songs to listen to, as well as to play for yourself.
Comments