Misfits - Dr Phibes Rises Again Chords & Tabs

 

Dr Phibes Rises Again Chords & Tabs

Misfits Chords & Tabs

Version: 3 Type: Tab 0 ratings
1 star 2 stars 3 stars 4 stars 5 stars
comments

Dr Phibes Rises Again Tab

From: Dyner 
Date: June 28, 2004

band: The Misfits
song: "Dr Phibes rises again"
from: 'Cuts from the crypt' (Mars attacks demo session)

tabb: Dyner - (Fencing_Guy_77@yahoo.com)

This is my first TAB so I don't know if it is good or not...if there are any
changes please email me...and I might be able to fix it. 

---Misfits---
---Dr Phibes rises again---

/  = slide
pm = Palm mute


Intro part: (the entire intro is played twice)

E||----------------------------|--------------------|
B||----------------------------|--------------------|
G||-------------------4--------|-----------5--------|
D||----------2--------4--------|--2--------5--------|
A||----------2--------2--------|--2--------3--------|
E||----------0-----------------|--0-----------------|


|--------------------|--------------------|------------------|
|--------------------|--------------------|------------------|
|-----------4--------|-----------5--------|------------------|
|--2--------4--------|--2--------5--------|------------------|
|--2--------2--------|--2--------3--------|------------------|
|--0-----------------|--0-----------------|------------------|
					   Pick Slide ----->


|--------------------|--------------------|--------------------|
|--------------------|--------------------|--------------------|
|--7--------5--------|--2--------4--------|--5--------4--------|
|--7--------5--------|--2--------4--------|--5--------4--------|
|--5--------3--------|--0--------2--------|--3--------2--------|
|--------------------|--------------------|--------------------|

                      || Play this part at the end of the second
                      \/  turn
|--------------------|--------------------|
|--------------------|--------------------|
|--------------------|--------------------|
|--5--------7--------|--5--------4--------|
|--5--------7--------|--5--------4--------|
|--3--------5--------|--3--------2--------|
                     |_________________|






This is the main riff:

|---------------------------------|
|---------------------------------|
|--9------------------------------|
|--9------------------------------|
|--7----7----9----10----9----7----|
|---------------------------------|



|---------------------------------|---------------------------------|
|---------------------------------|---------------------------------|
|--5------------------------------|--7------------------------------|
|--5------------------------------|--7------------------------------|
|--3----7----9----10----9----7----|--5----7----9----10----9----7----|
|---------------------------------|---------------------------------|



|-----------------------------|--------------------------|
|-----------------------------|--------------------------|
|--4--------5--------7--------|--------------------------|
|--4--------5--------7--------|--------------------------|
|--2--------3--------5--------|--------------------------|
|-----------------------------|--------------------------|


This is what is played during the verses:


|---------------------------------------|
|---------------------------------------|
|---------4--4--4--4--4--4--4--4--4--4--|
|---------4--4--4--4--4--4--4--4--4--4--|
|--3-2-0--2--2--2--2--2--2--2--2--2--2--|
|---------------------------------------|
          pm--------------------------|


|--------------------------------------|---------------------------------------|
|--------------------------------------|---------------------------------------|
|--------4--4--4--4--4--4--4--4--4--4--|---------4--4--4--4--4--4--4--4--4--4--|
|--------4--4--4--4--4--4--4--4--4--4--|---------4--4--4--4--4--4--4--4--4--4--|
|-3-2-0--2--2--2--2--2--2--2--2--2--2--|--3-2-0--2--2--2--2--2--2--2--2--2--2--|
|--------------------------------------|---------------------------------------|
         pm--------------------------|           pm--------------------------|


|-------------------------------|------------------------------------|
|-------------------------------|------------------------------------|
|---------7---------------------|--4----4--4--4--4--4--4--4--4--4----|
|---------7--------7------------|--4----4--4--4--4--4--4--4--4--4----|
|--3-2-0--5--------7------------|--2----2--2--2--2--2--2--2--2--2----|
|------------------5------------|------------------------------------|
                                        pm-----------------------|


|--------------------------------------|---------------------------------------|
|--------------------------------------|---------------------------------------|
|--------4--4--4--4--4--4--4--4--4--4--|---------4--4--4--4--4--4--4--4--4--4--|
|--------4--4--4--4--4--4--4--4--4--4--|---------4--4--4--4--4--4--4--4--4--4--|
|-3-2-0--2--2--2--2--2--2--2--2--2--2--|--3-2-0--2--2--2--2--2--2--2--2--2--2--|
|--------------------------------------|---------------------------------------|
         pm--------------------------|           pm--------------------------|


|-------------------------------|----------------------------|
|-------------------------------|----------------------------|
|---------7---------------------|--5------------4------------|
|---------7--------7------------|--5------------4------------|
|--3-2-0--5--------7------------|--3------------2------------|
|------------------5------------|----------------------------|



|------------------------------|
|------------------------------|
|---------4--------------------|
|---------4--------------------|
|--3-2-0--2--------------------|
|------------------------------|


Play this during the chorus:


|-----------------------------------|-----------------------------------|
|-----------------------------------|-----------------------------------|
|-----------2-----------9--9--------|-----------2-----------4--4--------|
|--2--4--5-----5--4--2--9--9--------|--2--4--5-----5--4--2--4--4--------|
|-----------------------7--7--------|-----------------------2--2--------|
|-----------------------------------|-----------------------------------|


[ Tab from: http://www.guitartabs.cc/tabs/m/misfits/dr_phibes_rises_again_tab_ver_3.html ]
|-----------------------------------|------------------------------|
|-----------------------------------|------------------------------|
|-----------2-------------5----4----|--2--2--2----4----------------|
|--2--4--5-----5--4--2----5----4----|--2--2--2----4----------------|
|-------------------------3----2----|--0--0--0----2----------------|
|-----------------------------------|------------------------------|
                                      pm-----|
the last time around ignore the 3 muted A:s and the B in the end as shown 
above
and slide down from B!



this is the intro (2) to the heavier part:

|------------------------------|
|------------------------------|
|--8----7----5----7------------|
|--8----7----5----7------------|
|--6----5----3----5------------|
|------------------------------|



After the intro above you play "heavy part 1":

Play this x4
|--------------------------------------|--------------------------------|
|--------------------------------------|--------------------------------|
|--7--7--7--7--7--7--7--7--7--7--7--7--|--5----7----8----7----5----7----|
|--7--7--7--7--7--7--7--7--7--7--7--7--|--5----7----8----7----5----7----|
|--5--5--5--5--5--5--5--5--5--5--5--5--|--3----5----6----5----3----5----|
|--------------------------------------|--------------------------------|
pm----------------------------------|

then play:

|---------------------------------|
|---------------------------------|
|--6----2----4---------12--8------|
|--6----2----4----6----12--8------|
|--4----0----2----6----10--6------|
|-----------------4---------------|

...and the whole thing x3


"heavy part 2":

|-------------------------------------------|
|-------------------------------------------|
|--7----7--7--7----5----7----8----7----5----|
|--7----7--7--7----5----7----8----7----5----|   x3
|--5----5--5--5----3----5----6----5----3----|
|-------------------------------------------|
       pm------|


|----------------------------|----------------------------|
|----------------------------|----------------------------|
|--6--------2----------------|--4-------------------------|
|--6--------2----------------|--4--------6----------------|
|--4--------0----------------|--2--------6----------------|
|----------------------------|-----------4----------------|



----------------------------|--------------------------|
----------------------------|--------------------------|
----------------------------|--------------------------|
--5--------4----------------|--------------------------|
--5--------4----------------|--------------------------|
--3--------2----------------|--------------------------|



Now to the solo:
This is my first TAB so I don't know if it is right but it sounds right to me.
|----------------------------|-----------------------------------|
|----------------------------|-----------------------------------|
|--9--------x----------------|--10--------9^10^9^10--------------|
|----------------------------|----------------------9------------|
|----------------------------|-----------------------------------|
|----------------------------|-----------------------------------|
                   


|-----------------------------|------------------------------------|
|-----------------------------|------------------------------------|
|--9--------10----------------|--12--11--9^11^9-7------------------|
|-----------------------------|--------------------9---------------|
|-----------------------------|------------------------------------|
|-----------------------------|------------------------------------|
    					

|---------------------------------|------------------------------|
|---------------------------------|------------------------------|
|---------------------------------|------------------------------|
|--12^11^----9--------------------|--7^9-10----------------------|
|--------12-----------------------|------------------------------|
|---------------------------------|------------------------------|
     


|-------------------------------|----------------------------------|
|-------------------------------|----------------------------------|
|-------------------------------|----------------------------------|
|--9^10-12----------------------|--10--9^10^9-7----9---------------|
|-------------------------------|----------------------------------|
|-------------------------------|----------------------------------|
    					


|-------------------------10--12----------|--------------------------|
|-------------10--12--13------------------|--------------------------|
|--9--11--12------------------------------|--------------------------|
|-----------------------------------------|--------------------------|
|-----------------------------------------|--------------------------|
|-----------------------------------------|--------------------------|
   

During the solo a second guitar plays:

|-----------------------------------------|
|-----------------------------------------|
|--9----5----7----4----5-7----------------|
|--9----5----7----4----5-7----------------|
|--7----3----5----2----3-5----------------|
|-----------------------------------------|
play over and over.



At the end Play:

|----------------------------------------------|
|----------------------------------------------|
|--9-9-9-9-9-9-9-9-9-9-9-9-9-9-9-9---5----4----|
|--9-9-9-9-9-9-9-9-9-9-9-9-9-9-9-9---5----4----|
|--7-7-7-7-7-7-7-7-7-7-7-7-7-7-7-7---3----2----|
|----------------------------------------------|
  pm------------------------------|


-----------------------------------------|-----------------------------------|
-----------------------------------------|-----------------------------------|
--5--------------------------------------|--7----5--5--5--5----5----4--------|
--5----11----10^11^10/9^10^9/7^9---------|--7----5--5--5--5----5----4--------|
--7--------------------------------------|--5----3--3--3--3----3----2--------|
-----------------------------------------|-----------------------------------|
	                         

play it a couple of times.


Ending:

-----------------------------||
-----------------------------||
--9----9----9----------------||
--9----9----9----------------||
--7----7----7----------------||
-----------------------------||











Map:

Intro        x2
main riff    x4
verse        x2
chorus       x2
main riff    x2
verse        x3
chorus       x3
main riff    x4
intro 2      x1
heavy part 1 x3
heavy part 2 x1
first intro  x1
main riff    x4
solo
chorus       x4
end riff
Comments