Misfits - Dr Phibes Rises Again Chords & Tabs

 

Dr Phibes Rises Again Chords & Tabs

Misfits Chords & Tabs

Version: 2 Type: Tab 0 ratings
1 star 2 stars 3 stars 4 stars 5 stars
comments

Dr Phibes Rises Again Tab

   
Misfits
Dr. Phibes Rises Again

Tuning: Db, Ab, Db, Gb, Bb, Eb

I don't know if this is 100%, but it sounds it to me. This is my first so bear with me. 

(*) - artificial harmonic
(.) - palm mute

Intro
|------------------------------------------------------
|------------------------------------------------------
|------------------------------------------------------
|------------------------------------------------------
|----2-----3-------2-----3----5--3---0--2---2--3-------
|-0-----0-------0-----0----------------------------3--5

repeat but end on

|------
|------
|------
|------
|------
|--3--2

Pre Verse
|---------------------------------------------------------
|---------------------------------------------------------
|---------------------------------------------------------  x4
|-2----------------------------------7------4--------*-*-*
|-2--7-9-10-9-7----10--7-9-10-9-7----5--5-7---7-5-0--2-3-5
|-0----------------8--------------------------------------

Verse 1
|-------------------------------
|-------------------------------
|--------------------------------  
|-------------------------------- x3
|-10--9--7--9----9-9-9-9-9-9-9-9 
|-8---7--5--7----7-7-7-7-7-7-7-7-
                 . . . . . . . .

 ------------------
 ------------------
 ------------------
 -----------7------
 -10--9--7--5--7--9
 -8---7--5-----5--7

 --------------------------
 --------------------------
 --------------------------
 -------------------------- x3
 -9-9-9-9-9-9---10--9--7--9
 -7-7-7-7-7-7----8--7--5--7
  . . . . . .

 -------------------|
 -------------------|
 -------------------|
 7------------------|
 5---7--------7-7--9|
 ----5---8-7--5-5--7|

Chorus
|---------------------------------------------
|---------------------------------------------
|------------------------------------7--------
|------------7----------9-9---7-9-10---10-9---
|-9---7-9-10---10-9-----7-7-----------------10
|-7----------------10-------------------------

 ---------------------------------|
 ---------------------------------|
 --------------*-*----------------|
 --------------7-6-*----5--4--2--4|  x2
 -9-9---7-9-10-----7-2--3--2--0--2|
 -7-7-----------------------------|

Pre Verse
|---------------------------------------------------------
|---------------------------------------------------------
|---------------------------------------------------------  x2
|-2----------------------------------7------4--------*-*-*
|-2--7-9-10-9-7----10--7-9-10-9-7----5--5-7---7-5-0--2-3-5
|-0----------------8--------------------------------------

Verse 2
|-------------------------------
|-------------------------------
|--------------------------------  
|-------------------------------- x3
|-10--9--7--9----9-9-9-9-9-9-9-9 
|-8---7--5--7----7-7-7-7-7-7-7-7-
                 . . . . . . . .

 ------------------
 ------------------
 ------------------
 -----------7------
 -10--9--7--5--7--9
 -8---7--5-----5--7

 --------------------------
 --------------------------
 --------------------------
 -------------------------- x3
 -9-9-9-9-9-9---10--9--7--9
 -7-7-7-7-7-7----8--7--5--7
  . . . . . .

 -----------------
 -----------------
 -----------------
 7----------------
 5---7---9--------
 ----5---7--------

 --------------------------
 --------------------------
 --------------------------
 -------------------------- x3
 -9-9-9-9-9-9---10--9--7--9
 -7-7-7-7-7-7----8--7--5--7
  . . . . . .

 ----------------------|
 ----------------------|
 ----------------------|
 7---------------------|
 5---7-----------7-7--9|
 ----5---8-8b-7--5-5--7|

Chorus
|---------------------------------------------
|---------------------------------------------
|------------------------------------7--------
|------------7----------9-9---7-9-10---10-9---
|-9---7-9-10---10-9-----7-7-----------------10
|-7----------------10-------------------------

 ---------------------------------|
 ---------------------------------|
 --------------*-*----------------|
 --------------7-6-*----5--4--2--4|  x3
 -9-9---7-9-10-----7-2--3--2--0--2|
 -7-7-----------------------------|



|---------------------------------------------------------
|---------------------------------------------------------
|---------------------------------------------------------  x4
|-2----------------------------------7------4--------*-*-*
|-2--7-9-10-9-7----10--7-9-10-9-7----5--5-7---7-5-0--2-3-5
|-0----------------8--------------------------------------


Interlude
|----------
|----------
|----------
|-8--7--5--
|-6--5--3--
|----------

|------------------------
|------------------------
|------------------------
|-7-7-7-7-7-7--5-7-8-7-5- x2
|-5-5-5-5-5-5--3-5-6-5-3-
|------------------------
   . . . . .
[ Tab from: http://www.guitartabs.cc/tabs/m/misfits/dr_phibes_rises_again_tab_ver_2.html ]
|------------------------------------------
|------------------------------------------
|------------------------------------------
|-7-7-7-7-7-7--5-7-8-7-5---------------5---
|-5-5-5-5-5-5--3-5-6-5-3---4--------------6
|-----------------------------5--7--3------
    . . . . .

|------------------------
|------------------------
|------------------------
|-7-7-7-7-7-7--5-7-8-7-5- x2
|-5-5-5-5-5-5--3-5-6-5-3-
|------------------------
   . . . . .

|------------------------------------------
|------------------------------------------
|------------------------------------------
|-7-7-7-7-7-7--5-7-8-7-5---------------5---
|-5-5-5-5-5-5--3-5-6-5-3---4--------------6
|-----------------------------5--7--3------
    . . . . .


|------------------------
|------------------------
|------------------------ x2
|-7-7-7-7-7-7--5-7-8-7-5- 
|-5-5-5-5-5-5--3-5-6-5-3-
|------------------------
    . . . . .

|-------------------------------------------
|-------------------------------------------
|-------------------------------------------
|-7-7-7-7-7-7--5-7-8-7-5---------------/5---
|-5-5-5-5-5-5--3-5-6-5-3---4--------------6-
|-----------------------------5--7--3-------
    . . . . .

then
|----------------------------------
|----------------------------------
|---------------------------------- 
|-7--7-7-7--7--7-7-7--7--5-7-8-7-5- x2
|-5--5-5-5--5--5-5-5--5--3-5-6-5-3-
|----------------------------------
     . . .     . . .

 -------------------------------------------------|
 -------------------------------------------------|
 -------------------------------------------------|
 -7--7-7-7--7--7-7-7--7--5-7-8-7-5----------------|
 -5--5-5-5--5--5-5-5--5--3-5-6-5-3---4--------5--4|
 ---------------------------------------5--7--3--2|

|-------------------------------------------------------------------
|-------------------------------------------------------------------
|-------------------------------------------------------------------
|-----------------------------7--5---2--4---------x-x-x-x-----------
|----2-----3-------2-----3----5--3---0--2---3--2--x-x-x-x--5--7--5-4
|-0-----0-------0-----0---------------------------x-x-x-x--3--5--3-2


|---------------------------------------------------------
|---------------------------------------------------------
|---------------------------------------------------------  x4
|-2----------------------------------7------4--------*-*-*
|-2--7-9-10-9-7----10--7-9-10-9-7----5--5-7---7-5-0--2-3-5
|-0----------------8--------------------------------------

Solo (not quite sure if this is 100% but it sounds ok to me)
|------------------------------------------------------------
|-----*------------------------------------------------------
|-9--12---10-9-------------------------12-10h12p10p9---------
|--------------12-10-9-7-9--7-9--9-10----------------10-9-7-9
|--------------------------------7-8-------------------------
|------------------------------------------------------------

 ------------------------------------------
 ------------------------------------------
 ------------------------------------------
 -7-9-7-9--7-9-10--9-10-12-10-9-10-9-7-9\--
 ------------------------------------------
 ------------------------------------------

 --------------------------------------|
 --------------------------------------|
 -9b--10b--12b--14b--16b--17b--19b--20b|
 --------------------------------------|
 --------------------------------------|
 --------------------------------------|

Chorus
|---------------------------------------------
|---------------------------------------------
|-------------------------------------7--------
|--------7----------9-9---7-9-10---10---9---
|-7-9-10---10-9-----7-7-------------------10
|--------------10-------------------------

 ---------------------------------|
 ---------------------------------|
 --------------*-*----------------|
 --------------7-6-*----5--4--2--4|  x4
 -9-9---7-9-10-----7-2--3--2--0--2|
 -7-7-----------------------------|

Outro
|-----------------------
|-----------------------
|-----------------------
|-2-2-2-2-2-2-2-2-------
|-0-0-0-0-0-0-0-0--10--9
|-0-0-0-0-0-0-0-0---8--7
    . . . . . . .

 ------------------------------------------
 ------------------------------------------
 ------------------------------------------
 -2-2-2-2-2-2-2-2---10-9-7h9p7-------------
 -0-0-0-0-0-0-0-0--------------10-9-7--10-9
 -0-0-0-0-0-0-0-0-----------------------8-7
    . . . . . . .

 -------------
 -------------
 -------------
 -------------
 -5~-----10--9
 ---------8--7

 ------------------------------
 ------------------------------
 ------------------------------
 -9---10-9-7h9p7---------------
 -7--------------10-9-7---10--9
 --------------------------8--7

 ----------------------
 ----------------------
 ----------------------
 -------x-x-x-x--------
 -5~----x-x-x-x---10--9
 -------x-x-x-x----8--7

 --------|
 --------|
 --------|
 -9--9--9|
 -7--7--7|
 --------|


 End
Comments