Misfits - Dr Phibes Rises Again Chords & Tabs

 

Dr Phibes Rises Again Chords & Tabs

Misfits Chords & Tabs

Version: 1 Type: Tab 0 ratings
1 star 2 stars 3 stars 4 stars 5 stars
comments

Dr Phibes Rises Again Tab

   
BAND:The Misfits
SONG: Dr. Phibes Rises Again
ALBUM:Cuts from the Crypt


notation: artificial harmonic EX:(2)
intro
Ab:-----2--------3:5--3-----0-2----3--2------
Eb:0---------0----:----------------------3--5

end of intro
Eb:3-2-0

riff 1
Gb:---------------------------------------------------
Db:-------------------------------4-------------------
Ab:7-9-10-9-7---7-9-10-9-7----5-7---7-5-3--(2)-(3)-(5)
Eb:-----------8------------10-------------------------

verse
B C B A B C B A B C B A D A C B

pre chorus riff(s)
Gb:8-----------------
Db:9--------7--------
Ab:9-7-9-10---10-9---
Eb:7---------------10

Gb:9--------7--------
Db:9-7-9-10---10-9---
Ab:7---------------10
Eb:------------------

C B A B

repeat riff 1 after pre chorus
[ Tab from: http://www.guitartabs.cc/tabs/m/misfits/dr_phibes_rises_again_tab.html ]
bridge riff 
D# D C 
D C D D# D C D (3x's)
Db A B G G F#
D C D D# D C D (3x's)
Db A B G G F#
D C D D# D C D (3x's)
Db A B G G F#
D C D D# D C D (3x's)
Db A B G F# E
than intro riff again

then riff 1

solo over this progression(4x's)
E C D B
with A D scale

play pre chorus 3x's
then
E C B
E  (the second time theres a small little fill)
Db:10-9h10p9(that a few times)---
Ab:---------------------------9-7 
Eb:------------------------------
then C B
D Db C B
E fill C B
D Db C B
E E E
Comments