Misfits - Dont Open Till Doomsday Chords & Tabs

 

Dont Open Till Doomsday Chords & Tabs

Misfits Chords & Tabs

Version: 1 Type: Tab 0 ratings
1 star 2 stars 3 stars 4 stars 5 stars
comments

Dont Open Till Doomsday Tab

   
Artist: Misfits
Song: Dont Open till doomsday
Album: American Psycho
Tuning: Eb,Ab,Db,Gb,Bb,Eb

The Misfits are truely a favorite band of mine. Expect more tabs of them by me.
Dont open till doomsday is one of there best songs. One of em. Contact
AIM- HIM3388

Intro:
1|-----------------------|
2|-----------------------|
3|---------6----2----4---|
4|---2-----6----2----4---|
5|---2-----4----0----2---|
6|---0-------------------|
[ Tab from: http://www.guitartabs.cc/tabs/m/misfits/dont_open_till_doomsday_tab.html ]
Verse:
1|-------------------------------------------------------------------------|
2|-------------------------------------------------------------------------|
3|-------------44444444--66666666------------------------------------------|
4|---22222222--44444444--66666666--6666-6--4-4-6---------------------------|
5|---22222222--22222222--44444444--6666-6--4-4-6---------------------------|
6|---00000000----------------------4444-4--2-2-4---------------------------|
      ^8X's       ^8X's      ^8X's     
Verse End
1|---------------------------------------------|
2|---------------------------------------------|
3|-22222222------------------------2222--4444--|
4|-22222222--2222-2-2-3--55555555--2222--4444--|
5|-00000000--2222-2-2-3--55555555--0000--2222--|
6|-----------0000-0-0-1--33333333--------------|
   ^8X's                   ^8X's
Chorus:                                 Chorus End   
1|------------------------------------|----------------------------------|
2|------------------------------------|----------------------------------|
3|----------6-6-6-6--2-2-2-2--4-4-4-4-|-2-2-2-2-2-2-2-2--4-4-4-4-4-4-4-4-|
4|-2-2-2-2--6-6-6-6--2-2-2-2--4-4-4-4-|-2-2-2-2-2-2-2-2--4-4-4-4-4-4-4-4-|
5|-2-2-2-2--4-4-4-4--0-0-0-0--2-2-2-2-|-0-0-0-0-0-0-0-0--2-2-2-2-2-2-2-2-|
6|-0-0-0-0----------------------------|----------------------------------|
                                              ^8X's            ^8X's
Outro:
1|-----|
2|-----|
3|-----|
4|--2~-|
5|--2~-|
6|--0~-|

Song Formation:         Song Formation 2:
Intro                    Intro
Chorus End               Verse
Verse End                Verse End
Chorus                   Chorus
Chorus End               Chorus End
Chorus                   Verse
Chorus End               Verse End
Outro                    Chorus
                         Chorus End
                         Outro

Complicated song form? Well. Study the form. Or listen to the song. The Way I've
Posted the song form is ''A'' way to play it. Song Formation 2 is the way I play
it. Contact me and tell me what you think......*Remember if you need, ask me to
play it for you, I have a mic*
Comments