Misfits - Dont Open Til Doomsday Chords & Tabs

 

Dont Open Til Doomsday Chords & Tabs

Misfits Chords & Tabs

Version: 2 Type: Tab 0 ratings
1 star 2 stars 3 stars 4 stars 5 stars
comments

Dont Open Til Doomsday Tab

   
-------------------------------------------------------------------------------
			     Don't Open 'til Doomsday - Misfits
-------------------------------------------------------------------------------
Tabbed by: Astrozombie138


Tuning: 1/2 step down

(intro)      (clean and strum down slowly)
eb|---------------------------------------------------------------------------|
Bb|---------------------------------------------------------------------------|
Gb|--9------------6--------------2-------------4------------------------------|
Db|--9------------6--------------2-------------4------------------------------|
Ab|--7------------4--------------0-------------2------------------------------|
Eb|---------------------------------------------------------------------------|

(verse)
eb|---------------------------------------------------------------------------|
Bb|---------------------------------------------------------------------------|
Gb|---------------------------------------------------------------------------|
Db|--9(16x)--4(16x)--6(16x)---------------------------------------------------|
Ab|--7-------2-------4-------6(16x)---7(16x)--\2(8x)--5(16x)--7(8x)--9(8x)----|
Eb|--------------------------4-------/5--------0------3-------5------7--------|

(chorus a) (there is two ways to play this)
eb|---------------------------------------------------------------------------|
Bb|---------------------------------------------------------------------------|
Gb|---------------------------------------------------------------------------|
Db|-9(8x)--6(8x)--2(8x)--4(8x)------------------------------------------------|
Ab|-7------4------0------2----------------------------------------------------|
Eb|---------------------------------------------------------------------------|

                                or
[ Tab from: http://www.guitartabs.cc/tabs/m/misfits/dont_open_til_doomsday_tab_ver_2.html ]
eb|---------------------------------------------------------------------------|
Bb|---------------------------------------------------------------------------|
Gb|---------------------------------------------------------------------------|
Db|-9(8x)--6(8x)--------------------------------------------------------------|
Ab|-7------4------7(8x)--9-7-9-7----------------------------------------------|
Eb|---------------5------7-5-7-5----------------------------------------------|

(chorus b)
eb|---------------------------------------------------------------------------|
Bb|---------------------------------------------------------------------------|
Gb|---------------------------------------------------------------------------|
Db|---------------------------------------------------------------------------|
Ab|--7--7-7-7-7-7-7-7-7--9--9-9-9-9-9-9-9-9\----------------------------------|
Eb|--5--5-5-5-5-5-5-5-5--7--7-7-7-7-7-7-7-7\----------------------------------|
(PM)    . . . . . . . .     . . . . . . . .

(outro)  (with feedback)
eb|---------------------------------------------------------------------------|
Bb|---------------------------------------------------------------------------|
Gb|---------------------------------------------------------------------------|
Db|--9:-----------------------------------------------------------------------|
Ab|--7:-----------------------------------------------------------------------|
Eb|---------------------------------------------------------------------------|



order:
intro       1x
verse       2x(2nd time without the 2nd slide)
chorus a    3x
chorus b    1x
chorus a    3x
chorus b    1x
verse       1x(without 2nd slide)
chorus a    3x
chorus b    1x
chorus a    3x
chorus b    2x
outro       1x



| : Let ring
| PM Palm Mute
| /  slide up
| \  slide down
| h  hammer-on
| p  pull-off
| ~  vibrato
| +  harmonic
| x  Mute note
===============================================================================
Comments