Misfits - Dig Up Her Bones Chords & Tabs

 

Dig Up Her Bones Chords & Tabs

Misfits Chords & Tabs

Version: 8 Type: Tab 0 ratings
1 star 2 stars 3 stars 4 stars 5 stars
comments

Dig Up Her Bones Tab

Dig Up Her Bones
Misfits
 
Intro 
E|------------------------------------------------------------|
B|------------------------------------------------------------|
G|------------------------------------------------------------|
D|-4---8-8-8-8---4-4-4-4---6-6-6-6----------------------------|
A|-4---8-8-8-8---4-4-4-4---6-6-6-6----------------------------|
E|-2---6-6-6-6---2-2-2-2---4-4-4-4---6-4-6-4-6-4-6-4----------|

E|------------------------------------------------------------|
B|------------------------------------------------------------|
G|---------------------6-6-6-6--------------------------------|
D|-8-8-8-8---4-4-4-4---6-6-6-6---6-6-6-6----------------------|
A|-8-8-8-8---4-4-4-4---4-4-4-4---6-6-6-6----------------------|
E|-6-6-6-6---2-2-2-2-------------4-4-4-4----------------------|

E|------------------------------------------------------------|
B|------------------------------------------------------------|
G|------------------------------------------------------------|
D|-8-8-8-8---4-4-4-4---6~~~---4---6---------------------------|
A|-8-8-8-8---4-4-4-4---6~~~---4---6---------------------------|
E|-6-6-6-6---2-2-2-2---4~~~---2---4---------------------------|
[ Tab from: http://www.guitartabs.cc/tabs/m/misfits/dig_up_her_bones_tab_ver_8.html ]
Verse part one
E|------------------------------------------------------------|
B|------------------------------------------------------------|
G|------------------------------------------------------------|
D|-8****---4****---6****--------------------------------------|
A|-8****---4****---6****--------------------------------------|
E|-6****---2****---4****---6-4-6-4-6-4-6-4--------------------|

Verse part two
E|------------------------------------------------------------|
B|------------------------------------------------------------|
G|------------------------------------------------------------|
D|-4****---6****---8~6-8~6~8----------------------------------|
A|-4****---6****---8~6-8~6~8----------------------------------|
E|-2****---4****---6~4-6~4~6----------------------------------|

Chorus 
E|------------------------------------------------------------|
B|------------------------------------------------------------|
G|---------------------6-6-6-6--------------------------------|
D|-8-8-8-8---4-4-4-4---6-6-6-6---6-6-6-6----------------------|
A|-8-8-8-8---4-4-4-4---4-4-4-4---6-6-6-6----------------------|
E|-6-6-6-6---2-2-2-2-------------4-4-4-4----------------------|

* = Palm mute
~ = Slide 

Song order
Intro                - x1
First Part of Verse  - x4
Second Part of Verse - x2
First Part of Verse  - x4
Second Part of Verse - x2
Chorus (no vocals)   - x1
First Part of Verse  - x6
Second Part of Verse - x2
Chorusx2
Comments