Misfits - Dig Up Her Bones Chords & Tabs

 

Dig Up Her Bones Chords & Tabs

Misfits Chords & Tabs

Version: 6 Type: Tab 0 ratings
1 star 2 stars 3 stars 4 stars 5 stars
comments

Dig Up Her Bones Tab

DIG UP HER BONES - Misfits
By: vanssk8r420@attbbs.net

 * means Palm-Mute, ~ means slide to next chord, ^ means hold

 p = pull-off  h = hammer-on

INTRO 
e|---------------------------------------------------------------------------|
B|---------------------------------------------------------------------------|
G|---------------------------------------------------------------------------|
D|--5~~9-9-9-9--5-5-5-5--7-7-7-7---------------------------------------------|
A|--5~~9-9-9-9--5-5-5-5--7-7-7-7--------------------x2-----------------------|
E|--3~~7-7-7-7--3-3-3-3--5-5-5-5--7p5h7p5h7p5h7p5----------------------------|

e|---------------------------------------------------------------------------|
B|---------------------------------------------------------------------------|
G|--------------------7-7-7-7------------------------------------------------|
D|--9-9-9-9--5-5-5-5--7-7-7-7--7-7-7-7---------------------------------------|
A|--9-9-9-9--5-5-5-5--5-5-5-5--7-7-7-7---------------------------------------|
E|--7-7-7-7--3-3-3-3-----------5-5-5-5---------------------------------------|

e|---------------------------------------------------------------------------|
B|---------------------------------------------------------------------------|
G|---------------------------------------------------------------------------|
D|--9-9-9-9--5-5-5-5--7^^^^---5-7--------------------------------------------|
A|--9-9-9-9--5-5-5-5--7^^^^---5-7-then immediately to verse------------------|
E|--7-7-7-7--3-3-3-3--5^^^^---3-5--------------------------------------------|

(* means Palm-Mute, ~ means slide to next chord)
[ Tab from: http://www.guitartabs.cc/tabs/m/misfits/dig_up_her_bones_tab_ver_6.html ]
First Part of Verse
e|---------------------------------------------------------------------------|
B|---------------------------------------------------------------------------|
G|---------------------------------------------------------------------------|
D|--9****-5****-7****--------------------------------------------------------|
A|--9****-5****-7****--------------------------------------------------------|
E|--7****-3****-5****--7p5h7p5h7p5h7p5---------------------------------------|

Second Part of Verse
e|---------------------------------------------------------------------------|
B|---------------------------------------------------------------------------|
G|---------------------------------------------------------------------------|
D|--5****-7****--9~7~9~7~9---------------------------------------------------|
A|--5****-7****--9~7~9~7~9---------------------------------------------------|
E|--3****-5****--7~5~7~5~7---------------------------------------------------|

CHORUS
e|---------------------------------------------------------------------------|
B|---------------------------------------------------------------------------|
G|--------------------7-7-7-7-----------------x4-----------------------------|
D|--9-9-9-9--9-9-9-9--7-7-7-7--7-7-7-7---------------------------------------|
A|--9-9-9-9--5-5-5-5--5-5-5-5--7-7-7-7---------------------------------------|
E|--7-7-7-7--3-3-3-3-----------5-5-5-5---------------------------------------|

Order of Song:
Wolf Howling...
Intro                - x1
First Part of Verse  - x4
Second Part of Verse - x2
First Part of Verse  - x4
Second Part of Verse - x2
Chorus               - x1
First Part of Verse  - x6
Second Part of Verse - x2
Chorus               - x2                  -7-
                                           -7-
Ending - Play 2 lines of chorus and end on -5-
Comments