Misfits - Dig Up Her Bones Chords & Tabs

 

Dig Up Her Bones Chords & Tabs

Misfits Chords & Tabs

Version: 3 Type: Tab 1 rating
1 star 2 stars 3 stars 4 stars 5 stars
comments

Dig Up Her Bones Tab

*=palm mute
intro
|-----------------------------------------------------
|-----------------------------------------------------
|--------------------6--6-6-6-------------------------
|--8--8-8-6-4--4-4-4-6--6-6-6-6---6-7-6-7-6-7-6-7-----
|--8--8-8-6-4--4-4-4-4--4-4-4-6---6-7-6-7-6-7-6-7-----
|--6--6-6-6-2--2-2-2----------4---4/5-4/5-4/5-4/5----- listen to the song to get the rythm of the 
slide
[ Tab from: http://www.guitartabs.cc/tabs/m/misfits/dig_up_her_bones_tab_ver_3.html ]
verse
|-----------------------------------------------------
|-----------------------------------------------------
|--------------------6--6-6-6-------------------------
|--8--8-8-6-4--4-4-4-6--6-6-6-6---6-7-6-7-6-7-6-7-----
|--8--8-8-6-4--4-4-4-4--4-4-4-6---6-7-6-7-6-7-6-7-----
|--6--6-6-6-2--2-2-2----------4---4/5-4/5-4/5-4/5-----
      * * *    * * *    * * *     
thats it..u might have to listen to the song for the rythm of it..
Comments