Misfits - Die Die My Darling Chords & Tabs

 

Die Die My Darling Chords & Tabs

Misfits Chords & Tabs

Version: 3 Type: Tab

Die Die My Darling Tab

Die, Die My Darling
The Misfits
Guitar Tab

Matt (Guitar 1)

Intro
(x3)
|------------------------------------|
|------------------------------------|
|--8--8--8--8--8--8--8--8------------|
|--8--8--8--8--8--8--8--8--4----3----|
|--6--6--6--6--6--6--6--6--4----3----|
|--------------------------2----1----|

Chorus ending:
(x2)
|---------------------------------------|
|---------------------------------------|
|---------------------------------------|
|--8------------------------------------|
|--6----8-8-8-8-8-8-8-8-8-8-8-8-8-8-8-8-|
|-------6-6-6-6-6-6-6-6-6-6-6-6-6-6-6-6-|

Verse
(x6)
|------------------------------------|
|------------------------------------|
|--8--8--8--8--8--8--8--8------------|
|--8--8--8--8--8--8--8--8--4----3----|
|--6--6--6--6--6--6--6--6--4----3----|
|--------------------------2----1----|

Chorus riff (x2 - w/Chorus ending)

Verse Again (Verse Riff x6)
[ Tab from: http://www.guitartabs.cc/tabs/m/misfits/die_die_my_darling_tab_ver_3.html ]
Chorus riff (x2 - w/Chorus ending)

Josh (Guitar 2)

Intro
(x3)
|--12-12-12-12-12-12-12-12--8----7---|
|------------------------------------|
|------------------------------------|
|------------------------------------|
|------------------------------------|
|------------------------------------|

Chorus ending:

(x2)
|--12-12-12-12-12-12-12-12--------------|
|---------------------------------------|
|---------------------------------------|
|---------------------------------------|
|---------------------------------------|
|---------------------------------------|

|--12-12-12-12-12-12-12-12--8----7---|
|------------------------------------|
|------------------------------------|
|------------------------------------|
|------------------------------------|
|------------------------------------|

Chorus riff (x2 - w/Chorus ending)

Verse Again (Verse Riff x6)

Chorus riff (x2 - w/Chorus ending)