Misfits - Die Die My Darling Chords & Tabs

 

Die Die My Darling Chords & Tabs

Misfits Chords & Tabs

Version: 2 Type: Tab 0 ratings
1 star 2 stars 3 stars 4 stars 5 stars
comments

Die Die My Darling Tab

   
-------------------------------------------------------------------------------
			     Die Die My Darling - Misfits
-------------------------------------------------------------------------------
Tabbed by: Astrozombie138

Tuning: standard

(riff 1)(i like to hold the last two chords instead of strumming them)
e|---------------------------------------------------------------------------|
B|---------------------------------------------------------------------------|
G|---------------------------------------------------------------------------|
D|--4--4--4--4--4--4--4--4---------------------------------------------------|
A|--2--2--2--2--2--2--2--2-----5--5-5-5-5---4--4-4-4-4-----------------------|
E|-----------------------------3--3-3-3-3---2--2-2-2-2-----------------------|

(riff 2)
e|----0------------------------0---------------------------------------------|
B|----0------------------------0---------------------------------------------|
G|---------------------------------------------------------------------------|
D|--2---4-4-4-4-4-4-4-4-4-4--2-----------------------------------------------|
A|--2---2-2-2-2-2-2-2-2-2-2--2---5-5-5-5-5-5-5-------------------------------|
E|--0------------------------0---3-3-3-3-3-3-3-------------------------------|
(PM)      . . . . . . . . .      . . . . . . .
[ Tab from: http://www.guitartabs.cc/tabs/m/misfits/die_die_my_darling_tab_ver_2.html ]
(riff 3)
e|---------------------------------------------------------------------------|
B|---------------------------------------------------------------------------|
G|---------------------------------------------------------------------------|
D|-4-4-4-4-4-4-4-4-4-4------------7:-----6:----------------------------------|
A|-2-2-2-2-2-2-2-2-2-2-----5:-----5:-----4:----------------------------------|
E|-------------------------3:------------------------------------------------|
(PM) . . . . . . . . .

(riff 4)
e|---------------------------------------------------------------------------|
B|---------------------------------------------------------------------------|
G|---------------------------------------------------------------------------|
D|--4-4-4-4-4-4-4-4----------------------------------------------------------|
A|--2-2-2-2-2-2-2-2--5-5--5-5-5--4-4--4-4-4----------------------------------|
E|-------------------3-3--3-3-3--2-2--2-2-2----------------------------------|

(riff 5)
e|---------------------------------------------------------------------------|
B|---------------------------------------------------------------------------|
G|---------------------------------------------------------------------------|
D|--4-4-4-4-4-4-4-4----------------------------------------------------------|
A|--2-2-2-2-2-2-2-2--5-5--5-5-5----------------------------------------------|
E|-------------------3-3--3-3-3----------------------------------------------|



order:
riff 1    3x
riff 2    1x
riff 3    6x
riff 1    2x
riff 2    1x
riff 3    6x
riff 1    2x
riff 2    1x
riff 1    6x
riff 4    2x
riff 5    1x




| : Hold chord
| /  slide up
| \  slide down
| h  hammer-on
| p  pull-off
| ~  vibrato
| +  harmonic
| x  Mute note
===============================================================================
Comments