Misfits - Devils Whorehouse Chords & Tabs

 

Devils Whorehouse Chords & Tabs

Misfits Chords & Tabs

Version: 2 Type: Tab 0 ratings
1 star 2 stars 3 stars 4 stars 5 stars
comments

Devils Whorehouse Tab

From TristamD@aol.com Thu May  8 16:48:22 1997

This is the way that I play devil's Whorehouse by The Misfits, and I think it
sounds the same as it was recorded on the albums "Walk Among US," and
"Collectioon II."

----------------------------------|
Devil's Whorehouse     
----------------------------------|

Intro....

(drum 1 , 2)

Verses....

1|-------------------------------------------|
2|-------------------------------------------|
3|-------------------------------------------|
4|-----------4---5------4-------5---7---9----|
5|-----------4---5------4-------5---7---9----|
6|-------0---2---3--0---2----0--3---5---7----|

she works at the devil's whorehouse....

Chorus...
[ Tab from: http://www.guitartabs.cc/tabs/m/misfits/devils_whorehouse_tab_ver_2.html ]
1st time play:
1|-------------------------------------------|
2|-------------------------------------------|
3|-------------------------------------------|
4|--5--5--9--9---7--7--10101010--------------|
5|--3--3--7--7---5--5--8--8--8---------------|
6|-------------------------------------------|
2nd time play:
1|-------------------------------------------|
2|-------------------------------------------|
3|-------------------------------------------|
4|--5--5--9--9--7--7-101010-12-12------------|
5|--3--3--7--7--5--5--8--8--10-10------------|
6|-------------------------------------------|
when I sin I sin real goood...when I sin I sin for sure......

Bridge.....
1|--------------------------------------|
2|--------------------------------------|
3|--------------------------------------|
4|----7-7-7-7-7-7-7-7-7-7-7-7---2---3---|
5|----5-5-5-5-5-5-5-5-5-5-5-5---2---3---|
6|--------------------------------------|
come alive in the house that screams.....

Tristam Drager
Tristamd@aol.com
Comments