Misfits - Devil Doll Chords & Tabs

 

Devil Doll Chords & Tabs

Misfits Chords & Tabs

Version: 2 Type: Tab 0 ratings
1 star 2 stars 3 stars 4 stars 5 stars
comments

Devil Doll Tab

   
Song:Devil Doll
Artist:The MisFiTs
Album:Famous Monsters
Transcribed By: Michael
E-Mail:guitarzan413@netscape.net

I was surprised when i looked on here that this song had no guitar tab
so i decided to add it...it is very easy.

Tune half step down:(E Flat)
{eb-Bb-Gb-Db-Ab-eb}

Intro:(W/ Small Reverb)
eb|-------------------------------------|
Bb|-------------------------------------|
Gb|-------------------------------------|(x2) (On the 2nd time, cut
Db|--------4-5-------------4-5---3------|      off the 2 Palm Muted
Ab|--------4-5-------------4-5---3------|      0's at the end and let
Eb|0-0-0-0-2-3-----0-0-0-0-2-3-0-1---0-0|      the F chord ring)
PM . . . .         . . . .     .     . .

eb|---------------------------------------------|
Bb|---------------------------------------------|
Gb|9-7-9999999-7-5-7777777-5-4-555555-7-5-777777|
Db|9-7-9999999-7-5-7777777-5-4-555555-7-5-777777|
Ab|7-5-7777777-5-3-5555555-3-2-333333-5-3-555555|
Eb|---------------------------------------------|

eb|---------------------------------------------|
Bb|---------------------------------------------|
Gb|9-7-9999999-7-5-7777777-5-4-555555-----------|
Db|9-7-9999999-7-5-7777777-5-4-555555-----------|
Ab|7-5-7777777-5-3-5555555-3-2-333333-3-5-2h3p2~|
Eb|---------------------------------------------|

Verses And Chorus:
eb|------------------------------------------------------------|
Bb|------------------------------------------------------------|
Gb|9-7------------9-7------------9-7-12-12-12-12-11-6----------|
Db|9-7-9999999999-9-7-9999999999-9-5-12-12-12-12-11-6-999999999|
Ab|7-5-7777777777-7-5-7777777777-7-5-10-10-10-10-9--8-777777777|
Eb|------------------------------------------------------------|
PM     ..........     ..........                      .........
[ Tab from: http://www.guitartabs.cc/tabs/m/misfits/devil_doll_tab_ver_2.html ]
Pre-Chorus/Pre-Verse:
eb|---------------------------------------------|
Bb|---------------------------------------------|
Gb|---------------------------------------------|
Db|777777777---555555555---888888888---777777777|
Ab|777777777---555555555---888888888---777777777|
eb|555555555-0-333333333-0/666666666-0-555555555|

Solo:
eb|-----------------------------------------------------------|
Bb|-----------------------------------------------------------|
Gb|-----------------------------------------------------------|
Db|------------7----7-9-7-9-10-9-10-12-10-12-13-14-14-14-14-14|
Ab|7-9-10-9-10---10-------------------------------------------|
Eb|-----------------------------------------------------------|

eb|---------------------------------------------------------------|
Bb|16b-16b-16b-16b/14b-14b-14b-14b/12b-12b-12b-12b/14b-14b-14b-14b|
Gb|---------------------------------------------------------------|
Db|---------------------------------------------------------------|
Ab|---------------------------------------------------------------|
Eb|---------------------------------------------------------------|

eb|-----------------------------------------------------------------|
Bb|16b-16b-16b-16b/14b-14b-14b-14b/12b-12b-12b-12b-10-11b(hold bend)|
Gb|-----------------------------------------------------------------|
Db|-----------------------------------------------------------------|
Ab|-----------------------------------------------------------------|
Eb|-----------------------------------------------------------------|

(Chorus, Pre-Verse)

Ending Riff:
eb|--------------------------------------------------------|
Bb|--------------------------------------------------------|
Gb|9-7-999999999---7777777777---55555555555---44444444444--|
Db|9-7-999999999---7777777777---55555555555---44444444444--|
Ab|7-5-777777777-0-5555555555-0-33333333333-0-22222222222-0|
Eb|--------------------------------------------------------|

eb|--------------------------------------------|
Bb|--------------------------------------------|
Gb|5----4---2----------------------------------|
Db|5----4---2----5/7---------2--------------4-5|
Ab|3----2---0----5/7---------2--------------4-5|
Eb|--------------3/5---------0------0-0-0-0-2-3|
PM                                  . . . .

Thats it. This song is cool. I like it. Later kids.
Comments