Misfits - Devil Doll Chords & Tabs

 

Devil Doll Chords & Tabs

Misfits Chords & Tabs

Version: 1 Type: Tab 0 ratings
1 star 2 stars 3 stars 4 stars 5 stars
comments

Devil Doll Tab

SOLO:
|-----------------------------------------------------------------
|-----------------------------------------------------------------
|-----------------------------------------7-------10-7-9/\/\/\/\--
|-------------7-------7-9---7-9-10---9-10------10-----------------
|7--9-10-9-10------10---------------------------------------------
|-----------------------------------------------------------------
[ Tab from: http://www.guitartabs.cc/tabs/m/misfits/devil_doll_tab.html ]
|12--12--12--12----10--10--10--10-----8---8---8---8------10--10--10--10----
|15^-15^-15^-15^---13^-13^-13^-13^---11^-11^-11^-11^-----13^-13^-13^-13^---
|--------------------------------------------------------------------------
|--------------------------------------------------------------------------
|--------------------------------------------------------------------------
|--------------------------------------------------------------------------

|12--12--12--12----10--10--10--10-----8---8---8---8------12/\/\/\/-----
|15^-15^-15^-15^---13^-13^-13^-13^---11^-11^-11^-11^-----------------------
|--------------------------------------------------------------------------
|--------------------------------------------------------------------------
|--------------------------------------------------------------------------
|--------------------------------------------------------------------------
Comments