Misfits - Descending Angel Chords & Tabs

 

Descending Angel Chords & Tabs

Misfits Chords & Tabs

Version: 5 Type: Tab 0 ratings
1 star 2 stars 3 stars 4 stars 5 stars
comments

Descending Angel Tab

   
-------------------------------------------------------------------------------
			     Descending Angel - Misfits
-------------------------------------------------------------------------------
Tabbed by: Astrozombie138

Tuning: 1/2 step down

(riff 1)
eb|---------------------------------------------------------------------------|
Bb|---------------------------------------------------------------------------|
Gb|---------------------------------------------------------------------------|
Db|---------------7--7--7-7-7-------------------------------------------------|
Ab|--9--9--9-9-9--5--5--5-5-5--7--7--7-7-7-------4-4-4-4-4-4------------------|
Eb|--7--7--7-7-7---------------5--5--5-5-5--/-\--2-2-2-2-2-2------------------|
(PM)                                             . . . . . .

(riff 2)
eb|---------------------------------------------------------------------------|
Bb|---------------------------------------------------------------------------|
Gb|---------------------------------------------------------------------------|
Db|---------------7--7--7-7-7-------------------------------------------------|
Ab|--9--9--9-9-9--5--5--5-5-5--7--7--7-7-7-------4-4-4-4-4-4------------------|
Eb|--7--7--7-7-7---------------5--5--5-5-5-------2-2-2-2-2-2------------------|
(PM)                                             . . . . . .

(riff 3)
eb|---------------------------------------------------------------------------|
Bb|---------------------------------------------------------------------------|
Gb|---------------------------------------------------------------------------|
Db|---------------7--7--7-7-7-------------------------------------------------|
Ab|--9--9--9-9-9--5--5--5-5-5--7--7--7-7-7-------4----------------------------|
Eb|--7--7--7-7-7---------------5--5--5-5-5-------2----------------------------|

(solo) (I suck at solos)
eb|---------------------------------------------------------------------------|
Bb|---------------------------------------------------------------------------|
Gb|---------------------------------------------------------------------------|
Db|--4/9~--9/11/12~----12-11--9h11h12p11p9--7h9--9-11-9/12--12/14--14h17p16---|
Ab|---------------------------------------------------------------------------|
Eb|---------------------------------------------------------------------------|

[ Tab from: http://www.guitartabs.cc/tabs/m/misfits/descending_angel_tab_ver_5.html ]
eb|---------------------------------------------------------------------------|
Bb|---------------------------------------------------------------------------|
Gb|---------------------------------------------------------------------------|
Db|-p14h17p16p14h17p16p14h17p16--16~-/14--------------------------------------|
Ab|---------------------------------------------------------------------------|
Eb|---------------------------------------------------------------------------|

eb|---------------------------------------------------------------------------|
Bb|---------------------------------------------------------------------------|
Gb|---------------------------------------------------------------------------|
Db|--9-8---9--8---9--8---9--8----7-6---7--6---7--6---7--6---5-4---5--4--------|
Ab|------9------9------9------9------7------7------7-----7------4-------7-5---|
Eb|---------------------------------------------------------------------------|

eb|---------------------------------------------------------------------------|
Bb|---------------------------------------------------------------------------|
Gb|---------------------------------------------------------------------------|
Db|--7-6---7--6----9-8---9--8----9^\------------------------------------------|
Ab|------7------9------9------9-----------------------------------------------|
Eb|---------------------------------------------------------------------------|

(riff 5)
eb|---------------------------------------------------------------------------|
Bb|---------------------------------------------------------------------------|
Gb|---------------------------------------------------------------------------|
Db|---------------7--7--7-7-7-------------------------------------------------|
Ab|--9--9--9-9-9--5--5--5-5-5--7--7--7-7-7-------4-4-4-4-4-4------------------|
Eb|--7--7--7-7-7---------------5--5--5-5-5-------2-2-2-2-2-2------------------|


order: (I did not indicate the pauses)
riff 1     2x
riff 2     3x
riff 3     1x
riff 1     1x
riff 3     1x
riff 1     1x
riff 2     4x
riff 3     1x
riff 1     1x
riff 3     1x
riff 1     1x
riff 2     1x
solo       1x
riff 2     1x
riff 3     1x
riff 2     2x
riff 5     3x
riff 3     1x(gradually slow down and hold last chord)
End on a B chord with feedback


| ^  bend half step
| /  slide up
| \  slide down
| h  hammer-on
| p  pull-off
| ~  vibrato
| +  harmonic
| x  Mute note
===============================================================================
Comments