Misfits - Death Comes Ripping Chords & Tabs

 

Death Comes Ripping Chords & Tabs

Misfits Chords & Tabs

Version: 2 Type: Tab 0 ratings
1 star 2 stars 3 stars 4 stars 5 stars
comments

Death Comes Ripping Tab

Band: Misfits
Song: Death Comes Ripping
Album: Collection 1
Tabber: Stefan Downey 
E-Mail: self_made@hotmail.com

This is one of my favourite Misfits songs and there are no tabs out there.
So I thought i'd make one here it goes:


Intro Repeat 4X           ( )= Palm Tute
E-----------------------   X = Amount Of Times
B-----------------------
G--------10-99----------
D-777777-10-99----------
A-777777-8--77----------
E-555555----------------
[ Tab from: http://www.guitartabs.cc/tabs/m/misfits/death_comes_ripping_tab_ver_2.html ]
Verse Repeat 4X
E-----------------------------
B-----------------------------
G--------------------10-99----                      
D-(7)(7)(7)(7)(7)(7)-10-99----               
A-(7)(7)(7)(7)(7)(7)-8--77----
E-(5)(5)(5)(5)(5)(5)----------

Chorus Repeat 4X
E-----------------------------
B-----------------------------
G777777-----------------------
D777777-8-77------------------
A555555-8-77------------------
E-------6-55------------------

Any Suggestions Or Comments E-Mail Me Or Add Me To My Messenger At
self_made@homail.com Hope You Enjoy, Thanks :D
Comments