Misfits - Death Comes Ripping Chords & Tabs

 

Death Comes Ripping Chords & Tabs

Misfits Chords & Tabs

Version: 1 Type: Tab 0 ratings
1 star 2 stars 3 stars 4 stars 5 stars
comments

Death Comes Ripping Tab

Death Comes Ripping

Transcribed by: Look_Upon_Me@yahoo.com

E  :----------------|----------------|----------------|----------------|
B  :----------------|----------------|----------------|----------------|
G  :----------------|----------------|----------------|----------------|
D  :7---------------|----------------|----------------|7---7-7-7-7-7-7-|
A  :7---------------|----------------|----------------|7---7-7-7-7-7-7-|
E  :5---------------|----------------|----------------|5---5-5-5-5-5-5-|

E  :------------------|----------------|------------------|
B  :------------------|----------------|------------------|
G  :10---10-9---9-9-9-|----------------|10---10-9---9-9-9-|
D  :10---10-9---9-9-9-|7---7-7-7-7-7-7-|10---10-9---9-9-9-|
A  :-8----8-7---7-7-7-|7---7-7-7-7-7-7-|-8----8-7---7-7-7-|
E  :------------------|5---5-5-5-5-5-5-|------------------|

E  :----------------|------------------|----------------|
B  :----------------|------------------|----------------|
G  :----------------|10---10-9---9-9-9-|----------------|
D  :7---7-7-7-7-7-7-|10---10-9---9-9-9-|7---7-7-7-7-7-7-|
A  :7---7-7-7-7-7-7-|-8----8-7---7-7-7-|7---7-7-7-7-7-7-|
E  :5---5-5-5-5-5-5-|------------------|5---5-5-5-5-5-5-|

E  :------------------|----x-x-x-x-x-x-|------------------|
B  :------------------|----------------|------------------|
G  :10---10-9---9-9-9-|----x-x-x-x-x-x-|10---10-9---9-9-9-|
D  :10---10-9---9-9-9-|7---x-x-x-x-x-x-|10---10-9---9-9-9-|
A  :-8----8-7---7-7-7-|7---x-x-x-x-x-x-|-8----8-7---7-7-7-|
E  :------------------|5---x-x-x-x-x-x-|------------------|

E  :----x-x-x-x-x-x-|------------------|----x-x-x-x-x-x-|
B  :----------------|------------------|----------------|
G  :----x-x-x-x-x-x-|10---10-9---9-9-9-|----x-x-x-x-x-x-|
D  :7---x-x-x-x-x-x-|10---10-9---9-9-9-|7---x-x-x-x-x-x-|
A  :7---x-x-x-x-x-x-|-8----8-7---7-7-7-|7---x-x-x-x-x-x-|
E  :5---x-x-x-x-x-x-|------------------|5---x-x-x-x-x-x-|

E  :------------------|----x-x-x-x-x-x-|------------------|
B  :------------------|----------------|------------------|
G  :10---10-9---9-9-9-|----x-x-x-x-x-x-|10---10-9---9-9-9-|
D  :10---10-9---9-9-9-|7---x-x-x-x-x-x-|10---10-9---9-9-9-|
A  :-8----8-7---7-7-7-|7---x-x-x-x-x-x-|-8----8-7---7-7-7-|
E  :------------------|5---x-x-x-x-x-x-|------------------|

E  :----------------|----------------|----------------|----------------|
B  :----------------|----------------|----------------|----------------|
G  :7---------------|----------------|----------------|----------------|
D  :7---------------|----------------|----------------|----------------|
A  :5---------------|----------------|----------------|----------------|
E  :----------------|----------------|----------------|----------------|

E  :----x-x-x-x-x-x-|------------------|----x-x-x-x-x-x-|
B  :----------------|------------------|----------------|
G  :----x-x-x-x-x-x-|10---10-9---9-9-9-|----x-x-x-x-x-x-|
D  :7---x-x-x-x-x-x-|10---10-9---9-9-9-|7---x-x-x-x-x-x-|
A  :7---x-x-x-x-x-x-|-8----8-7---7-7-7-|7---x-x-x-x-x-x-|
E  :5---x-x-x-x-x-x-|------------------|5---x-x-x-x-x-x-|

E  :------------------|----x-x-x-x-x-x-|------------------|
B  :------------------|----------------|------------------|
G  :10---10-9---9-9-9-|----x-x-x-x-x-x-|10---10-9---9-9-9-|
D  :10---10-9---9-9-9-|7---x-x-x-x-x-x-|10---10-9---9-9-9-|
A  :-8----8-7---7-7-7-|7---x-x-x-x-x-x-|-8----8-7---7-7-7-|
E  :------------------|5---x-x-x-x-x-x-|------------------|

E  :----x-x-x-x-x-x-|------------------|----x-x-x-x-x-x-|
B  :----------------|------------------|----------------|
G  :----x-x-x-x-x-x-|10---10-9---9-9-9-|----x-x-x-x-x-x-|
D  :7---x-x-x-x-x-x-|10---10-9---9-9-9-|7---x-x-x-x-x-x-|
A  :7---x-x-x-x-x-x-|-8----8-7---7-7-7-|7---x-x-x-x-x-x-|
E  :5---x-x-x-x-x-x-|------------------|5---x-x-x-x-x-x-|

E  :------------------|----x-x-x-x-x-x-|------------------|
B  :------------------|----------------|------------------|
G  :10---10-9---9-9-9-|----x-x-x-x-x-x-|10---10-9---9-9-9-|
D  :10---10-9---9-9-9-|7---x-x-x-x-x-x-|10---10-9---9-9-9-|
A  :-8----8-7---7-7-7-|7---x-x-x-x-x-x-|-8----8-7---7-7-7-|
E  :------------------|5---x-x-x-x-x-x-|------------------|

E  :----x-x-x-x-x-x-|------------------|----x-x-x-x-x-x-|
B  :----------------|------------------|----------------|
G  :----x-x-x-x-x-x-|10---10-9---9-9-9-|----x-x-x-x-x-x-|
D  :7---x-x-x-x-x-x-|10---10-9---9-9-9-|7---x-x-x-x-x-x-|
A  :7---x-x-x-x-x-x-|-8----8-7---7-7-7-|7---x-x-x-x-x-x-|
E  :5---x-x-x-x-x-x-|------------------|5---x-x-x-x-x-x-|

E  :------------------|----------------|----------------|
B  :------------------|----------------|----------------|
G  :10---10-9---9-9-9-|7---7-7-7---7-7-|7---7-7-7---7-7-|
D  :10---10-9---9-9-9-|7---7-7-7---7-7-|7---7-7-7---7-7-|
A  :-8----8-7---7-7-7-|5---5-5-5---5-5-|5---5-5-5---5-5-|
E  :------------------|----------------|----------------|

E  :----------------|----------------|----------------|----------------|
B  :----------------|----------------|----------------|----------------|
G  :3---3-3-3---3-3-|----------------|7---7-7-7---7-7-|7---7-7-7---7-7-|
D  :3---3-3-3---3-3-|5---5-5-5---5-5-|7---7-7-7---7-7-|7---7-7-7---7-7-|
A  :1---1-1-1---1-1-|5---5-5-5---5-5-|5---5-5-5---5-5-|5---5-5-5---5-5-|
E  :----------------|3---3-3-3---3-3-|----------------|----------------|

E  :----------------|----------------|----------------|----------------|
B  :----------------|----------------|----------------|----------------|
G  :3---3-3-3---3-3-|----------------|7---7-7-7---7-7-|7---7-7-7---7-7-|
D  :3---3-3-3---3-3-|5---5-5-5---5-5-|7---7-7-7---7-7-|7---7-7-7---7-7-|
A  :1---1-1-1---1-1-|5---5-5-5---5-5-|5---5-5-5---5-5-|5---5-5-5---5-5-|
E  :----------------|3---3-3-3---3-3-|----------------|----------------|

E  :----------------|----------------|----------------|----------------|
B  :----------------|----------------|----------------|----------------|
G  :3---3-3-3---3-3-|----------------|7---7-7-7---7-7-|7---7-7-7---7-7-|
D  :3---3-3-3---3-3-|5---5-5-5---5-5-|7---7-7-7---7-7-|7---7-7-7---7-7-|
A  :1---1-1-1---1-1-|5---5-5-5---5-5-|5---5-5-5---5-5-|5---5-5-5---5-5-|
E  :----------------|3---3-3-3---3-3-|----------------|----------------|

E  :----------------|----------------|----x-x-x-x-x-x-|
B  :----------------|----------------|----------------|
G  :3---3-3-3---3-3-|----------------|----x-x-x-x-x-x-|
D  :3---3-3-3---3-3-|5---5-5-5---5-5-|7---x-x-x-x-x-x-|
A  :1---1-1-1---1-1-|5---5-5-5---5-5-|7---x-x-x-x-x-x-|
E  :----------------|3---3-3-3---3-3-|5---x-x-x-x-x-x-|

E  :------------------|----x-x-x-x-x-x-|------------------|
B  :------------------|----------------|------------------|
G  :10---10-9---9-9-9-|----x-x-x-x-x-x-|10---10-9---9-9-9-|
D  :10---10-9---9-9-9-|7---x-x-x-x-x-x-|10---10-9---9-9-9-|
A  :-8----8-7---7-7-7-|7---x-x-x-x-x-x-|-8----8-7---7-7-7-|
E  :------------------|5---x-x-x-x-x-x-|------------------|
[ Tab from: http://www.guitartabs.cc/tabs/m/misfits/death_comes_ripping_tab.html ]
E  :----x-x-x-x-x-x-|------------------|----x-x-x-x-x-x-|
B  :----------------|------------------|----------------|
G  :----x-x-x-x-x-x-|10---10-9---9-9-9-|----x-x-x-x-x-x-|
D  :7---x-x-x-x-x-x-|10---10-9---9-9-9-|7---x-x-x-x-x-x-|
A  :7---x-x-x-x-x-x-|-8----8-7---7-7-7-|7---x-x-x-x-x-x-|
E  :5---x-x-x-x-x-x-|------------------|5---x-x-x-x-x-x-|

E  :------------------|----x-x-x-x-x-x-|------------------|
B  :------------------|----------------|------------------|
G  :10---10-9---9-9-9-|----x-x-x-x-x-x-|10---10-9---9-9-9-|
D  :10---10-9---9-9-9-|7---x-x-x-x-x-x-|10---10-9---9-9-9-|
A  :-8----8-7---7-7-7-|7---x-x-x-x-x-x-|-8----8-7---7-7-7-|
E  :------------------|5---x-x-x-x-x-x-|------------------|

E  :----x-x-x-x-x-x-|------------------|----x-x-x-x-x-x-|
B  :----------------|------------------|----------------|
G  :----x-x-x-x-x-x-|10---10-9---9-9-9-|----x-x-x-x-x-x-|
D  :7---x-x-x-x-x-x-|10---10-9---9-9-9-|7---x-x-x-x-x-x-|
A  :7---x-x-x-x-x-x-|-8----8-7---7-7-7-|7---x-x-x-x-x-x-|
E  :5---x-x-x-x-x-x-|------------------|5---x-x-x-x-x-x-|

E  :------------------|----x-x-x-x-x-x-|------------------|
B  :------------------|----------------|------------------|
G  :10---10-9---9-9-9-|----x-x-x-x-x-x-|10---10-9---9-9-9-|
D  :10---10-9---9-9-9-|7---x-x-x-x-x-x-|10---10-9---9-9-9-|
A  :-8----8-7---7-7-7-|7---x-x-x-x-x-x-|-8----8-7---7-7-7-|
E  :------------------|5---x-x-x-x-x-x-|------------------|

E  :----------------|----------------|----------------|----------------|
B  :----------------|----------------|----------------|----------------|
G  :7---7-7-7---7-7-|7---7-7-7---7-7-|3---3-3-3---3-3-|----------------|
D  :7---7-7-7---7-7-|7---7-7-7---7-7-|3---3-3-3---3-3-|5---5-5-5---5-5-|
A  :5---5-5-5---5-5-|5---5-5-5---5-5-|1---1-1-1---1-1-|5---5-5-5---5-5-|
E  :----------------|----------------|----------------|3---3-3-3---3-3-|

E  :----------------|----------------|----------------|----------------|
B  :----------------|----------------|----------------|----------------|
G  :7---7-7-7---7-7-|7---7-7-7---7-7-|3---3-3-3---3-3-|----------------|
D  :7---7-7-7---7-7-|7---7-7-7---7-7-|3---3-3-3---3-3-|5---5-5-5---5-5-|
A  :5---5-5-5---5-5-|5---5-5-5---5-5-|1---1-1-1---1-1-|5---5-5-5---5-5-|
E  :----------------|----------------|----------------|3---3-3-3---3-3-|

E  :----------------|----------------|----------------|----------------|
B  :----------------|----------------|----------------|----------------|
G  :7---7-7-7---7-7-|7---7-7-7---7-7-|3---3-3-3---3-3-|----------------|
D  :7---7-7-7---7-7-|7---7-7-7---7-7-|3---3-3-3---3-3-|5---5-5-5---5-5-|
A  :5---5-5-5---5-5-|5---5-5-5---5-5-|1---1-1-1---1-1-|5---5-5-5---5-5-|
E  :----------------|----------------|----------------|3---3-3-3---3-3-|

E  :----------------|----------------|----------------|----------------|
B  :----------------|----------------|----------------|----------------|
G  :7---7-7-7---7-7-|7---7-7-7---7-7-|3---3-3-3---3-3-|----------------|
D  :7---7-7-7---7-7-|7---7-7-7---7-7-|3---3-3-3---3-3-|5---5-5-5---5-5-|
A  :5---5-5-5---5-5-|5---5-5-5---5-5-|1---1-1-1---1-1-|5---5-5-5---5-5-|
E  :----------------|----------------|----------------|3---3-3-3---3-3-|

E  :----------------|----------------|----------------|----------------|
B  :----------------|----------------|----------------|----------------|
G  :7---7-7-7---7-7-|7---7-7-7---7-7-|3---3-3-3---3-3-|----------------|
D  :7---7-7-7---7-7-|7---7-7-7---7-7-|3---3-3-3---3-3-|5---5-5-5---5-5-|
A  :5---5-5-5---5-5-|5---5-5-5---5-5-|1---1-1-1---1-1-|5---5-5-5---5-5-|
E  :----------------|----------------|----------------|3---3-3-3---3-3-|

E  :----------------|----------------|----------------|----------------|
B  :----------------|----------------|----------------|----------------|
G  :7---7-7-7---7-7-|7---7-7-7---7-7-|3---3-3-3---3-3-|----------------|
D  :7---7-7-7---7-7-|7---7-7-7---7-7-|3---3-3-3---3-3-|5---5-5-5---5-5-|
A  :5---5-5-5---5-5-|5---5-5-5---5-5-|1---1-1-1---1-1-|5---5-5-5---5-5-|
E  :----------------|----------------|----------------|3---3-3-3---3-3-|

E  :----------------|----------------|----------------|----------------|
B  :----------------|----------------|----------------|----------------|
G  :7---7-7-7---7-7-|7---7-7-7---7-7-|3---3-3-3---3-3-|----------------|
D  :7---7-7-7---7-7-|7---7-7-7---7-7-|3---3-3-3---3-3-|5---5-5-5---5-5-|
A  :5---5-5-5---5-5-|5---5-5-5---5-5-|1---1-1-1---1-1-|5---5-5-5---5-5-|
E  :----------------|----------------|----------------|3---3-3-3---3-3-|

E  :----------------|----------------|----------------|----------------|
B  :----------------|----------------|----------------|----------------|
G  :7---7-7-7---7-7-|7---7-7-7---7-7-|3---3-3-3---3-3-|----------------|
D  :7---7-7-7---7-7-|7---7-7-7---7-7-|3---3-3-3---3-3-|5---5-5-5---5-5-|
A  :5---5-5-5---5-5-|5---5-5-5---5-5-|1---1-1-1---1-1-|5---5-5-5---5-5-|
E  :----------------|----------------|----------------|3---3-3-3---3-3-|

E  :----------------|------------------|----------------|
B  :----------------|------------------|----------------|
G  :----------------|10---10-9---9-9-9-|----------------|
D  :7---7-7-7-7-7-7-|10---10-9---9-9-9-|7---7-7-7-7-7-7-|
A  :7---7-7-7-7-7-7-|-8----8-7---7-7-7-|7---7-7-7-7-7-7-|
E  :5---5-5-5-5-5-5-|------------------|5---5-5-5-5-5-5-|

E  :------------------|----------------|------------------|
B  :------------------|----------------|------------------|
G  :10---10-9---9-9-9-|----------------|10---10-9---9-9-9-|
D  :10---10-9---9-9-9-|7---7-7-7-7-7-7-|10---10-9---9-9-9-|
A  :-8----8-7---7-7-7-|7---7-7-7-7-7-7-|-8----8-7---7-7-7-|
E  :------------------|5---5-5-5-5-5-5-|------------------|

E  :----------------|------------------|----x-x-x-x-x-x-|
B  :----------------|------------------|----------------|
G  :----------------|10---10-9---9-9-9-|----x-x-x-x-x-x-|
D  :7---7-7-7-7-7-7-|10---10-9---9-9-9-|7---x-x-x-x-x-x-|
A  :7---7-7-7-7-7-7-|-8----8-7---7-7-7-|7---x-x-x-x-x-x-|
E  :5---5-5-5-5-5-5-|------------------|5---x-x-x-x-x-x-|

E  :------------------|----x-x-x-x-x-x-|------------------|
B  :------------------|----------------|------------------|
G  :10---10-9---9-9-9-|----x-x-x-x-x-x-|10---10-9---9-9-9-|
D  :10---10-9---9-9-9-|7---x-x-x-x-x-x-|10---10-9---9-9-9-|
A  :-8----8-7---7-7-7-|7---x-x-x-x-x-x-|-8----8-7---7-7-7-|
E  :------------------|5---x-x-x-x-x-x-|------------------|

E  :----x-x-x-x-x-x-|------------------|----x-x-x-x-x-x-|
B  :----------------|------------------|----------------|
G  :----x-x-x-x-x-x-|10---10-9---9-9-9-|----x-x-x-x-x-x-|
D  :7---x-x-x-x-x-x-|10---10-9---9-9-9-|7---x-x-x-x-x-x-|
A  :7---x-x-x-x-x-x-|-8----8-7---7-7-7-|7---x-x-x-x-x-x-|
E  :5---x-x-x-x-x-x-|------------------|5---x-x-x-x-x-x-|

E  :------------------|----------------|----------------|
B  :------------------|----------------|----------------|
G  :10---10-9---9-9-9-|----------------|----------------|
D  :10---10-9---9-9-9-|7---------------|----------------|
A  :-8----8-7---7-7-7-|7---------------|----------------|
E  :------------------|5---------------|*---------------|
Comments