Misfits - Dead Kings Rise Chords & Tabs

 

Dead Kings Rise Chords & Tabs

Misfits Chords & Tabs

Version: 2 Type: Tab 0 ratings
1 star 2 stars 3 stars 4 stars 5 stars
comments

Dead Kings Rise Tab

   
-------------------------------------------------------------------------------
	           Dead Kings Rise (demo version) - Misfits
-------------------------------------------------------------------------------
Tabbed by: Astrozombie138

Tuning: 1/2 step down

(riff 1)
eb|--------|-----------------------------------------------------------------|
Bb|--pick--|-----------------------------------------------------------------|
Gb|--slide-|-----------------------------------------------------------------|
Db|-\\\----|6:--8:--9:--6:--6:--8:--9:--6:--6:--8:--9:--6:----6-6-6-6-6-6-6-6|
Ab|--\\\---|4:--6:--7:--4:--4:--6:--7:--4:--4:--6:--7:--4:--\-4-4-4-4-4-4-4-4|
Eb|--------|------------------------------------------------\----------------|
(PM)                                                          . . . . . . . .

(riff 1 cont.)
eb|---------------------------------------------------------------------------|
Bb|---------------------------------------------------------------------------|
Gb|---------------------------------------------------------------------------|
Db|--8-8-8-8-8-8-8-8--9-9-9-9-9-9-9-9--6::------------------------------------|
Ab|--6-6-6-6-6-6-6-6--7-7-7-7-7-7-7-7--4::------------------------------------|
Eb|---------------------------------------------------------------------------|
(PM) . . . . . . . .  . . . . . . . .

(riff 2)
eb|---------------------------------------------------------------------------|
Bb|---------------------------------------------------------------------------|
Gb|---------------------------------------------------------------------------|
Db|---------------------------------9-9-9-9-9--6------------------------------|
Ab|--7AH-6AH--6-6-6-6-6--9-9-9-9-9--7-7-7-7-7--4------------------------------|
Eb|-----------4-4-4-4-4--7-7-7-7-7--------------------------------------------|
[ Tab from: http://www.guitartabs.cc/tabs/m/misfits/dead_kings_rise_tab_ver_2.html ]
(riff 3)
eb|----------------------------------------------------|----------------------|
Bb|----------------------------------------------------|----------------------|
Gb|----------------------------------------------------|---pick---------------|
Db|------------------------9-9-9-9-9-9-9--11-11-11-11--|---slide--------------|
Ab|--6-6-6-6-6--9-9-9-9-9--7-7-7-7-7-7-7--9--9--9--9---|----\\\---------------|
Eb|--4-4-4-4-4--7-7-7-7-7------------------------------|-----\\\--------------|
(PM)                       . . . . . . .  .  .  .  .

(riff 4)
eb|---------------------------------------------------------------------------|
Bb|---------------------------------------------------------------------------|
Gb|---------------------------------------------------------------------------|
Db|--8-8-8-8-8--9-9-9-9-9-----------------------------------------------------|
Ab|--6-6-6-6-6--7-7-7-7-7--9-9-9-9-9-9-9-9-9----------------------------------|
Eb|------------------------7-7-7-7-7-7-7-7-7----------------------------------|
(PM)                       . . . . . . . . .

(riff 5)
eb|--------|------------------------------------------------------------------|
Bb|-pick---|------------------------------------------------------------------|
Gb|-slide--|------------------------------------------------------------------|
Db|-\\\----|-8-8-8-8-8--9-9-9-9-9---------------------------------------------|
Ab|--\\\---|-6-6-6-6-6--7-7-7-7-7--9-9-9-9-9-9-9-9-9--9:---7AH--6AH-----------|
Eb|--------|-----------------------7-7-7-7-7-7-7-7-7--7:----------------------|
                      
(riff 6)
eb|---------------------------------------------------------------------------|
Bb|---------------------------------------------------------------------------|
Gb|---------------------------------------------------------------------------|
Db|----6:--8:--9:--6:-------6-6-6-6-6-6-6--8-8-8-8-8-8-8--9-9-9-9-9-9-9---6::-|
Ab|----4:--6:--7:--4:----\--4-4-4-4-4-4-4--6-6-6-6-6-6-6--7-7-7-7-7-7-7---4::-|
Eb|-----------------------\---------------------------------------------------|
(PM)                         . . . . . . .  . . . . . . .  . . . . . . .



order:
riff 1         1x
riff 2         5x
riff 3         1x
riff 4         4x
riff 2         3x
riff 3         1x
riff 4         4x
riff 5         4x (pick slide first time only)
riff 6         1x


| PM Palm mute
| :  Let ring
| /  slide up
| \  slide down
| h  hammer-on
| p  pull-off
| ~  vibrato
| AH Artificial harmonic
| x  Mute note
===============================================================================
Comments