Misfits - Crimson Ghost Chords & Tabs

 

Crimson Ghost Chords & Tabs

Misfits Chords & Tabs

Version: 2 Type: Bass Tab 0 ratings
1 star 2 stars 3 stars 4 stars 5 stars
comments

Crimson Ghost Bass Tab

Crimson Ghost - Misfits
tabbed by: ryan b

Riff A: (once)
Ab--------
Eb--12\3--

Riff B: (4 times)
Ab---------3-3333--------5-5555--------3-3333--0---------
Eb--0-0000--------0-0000--------0-0000------------3-2-3--

Riff C: (8 times)
Ab---------------
Eb--0-0-0-0-0h3--
[ Tab from: http://www.guitartabs.cc/tabs/m/misfits/crimson_ghost_btab_ver_2.html ]
Riff D: (3 times)
Ab--22222222--0-0-3-333--
Eb-----------------------

Riff E: (once)
Ab--22222222--0-0------------
Eb-----------------3-3--2-2--

Riff C: (4 times)
Riff D: (3 times)
Riff E: (once)
Riff C: (7 times)

Riff F: (8 times)
Ab----------------------------------------
Eb--0000-11--3333--55--6666--55--3333-11--

Riff G: (once)
Ab---------------------------
Eb--0---------------------0--

Comments