Misfits - Crawling Eye Chords & Tabs

 

Crawling Eye Chords & Tabs

Misfits Chords & Tabs

Version: 2 Type: Tab 0 ratings
1 star 2 stars 3 stars 4 stars 5 stars
comments

Crawling Eye Tab

   
-------------------------------------------------------------------------------
			     Crawling Eye - Misfits
-------------------------------------------------------------------------------
Tabbed by: Astrozombie138
Email: astrozombie138@gmail.com

Tuning: 1/2 Step down

(intro)
eb|---------------------------------------------------------------------------|
Bb|---------------------------------------------------------------------------|
Gb|---------------------------------------------------------------------------|
Db|------------8-7---------------------------------8-7------------------------|
Ab|--5-5--7-7--6-5-----5-5--7-7--8-10----5-5--7-7--6-5------8-8-8-10-10-10----|
Eb|--3-3--5-5----------3-3--5-5--6-8-----3-3--5-5-----------6-6-6-8--8--8-----|
(PM)      . .               . .               . .

(riff 2)
eb|---------------------------------------------------------------------------|
Bb|---------------------------------------------------------------------------|
Gb|---------------------------------------------------------------------------|
Db|----------------------7--7-7-7---------------------------------------------|
Ab|--9--9-9-9--5--5-5-5--5--5-5-5--7--7-7-7-----------------------------------|
Eb|--7--7-7-7--3--3-3-3------------5--5-5-5-----------------------------------|
[ Tab from: http://www.guitartabs.cc/tabs/m/misfits/crawling_eye_tab_ver_2.html ]
(riff 3)
eb|---------------------------------------------------------------------------|
Bb|---------------------------------------------------------------------------|
Gb|---------------------------------------------------------------------------|
Db|---------------------------------------------------------------------------|
Ab|--9--9-9-9--5--5-5-5--7-7-7-7-7-7-7-7-7-7-7-7-7-7-7-7----\-----------------|
Eb|--7--7-7-7--3--3-3-3--5-5-5-5-5-5-5-5-5-5-5-5-5-5-5-5----\-----------------|
(PM)                                   . . . . . . 

(riff 4)
eb|---------------------------------------------------------------------------|
Bb|---------------------------------------------------------------------------|
Gb|---------------------------------------------------------------------------|
Db|--------------------------------------7-7-------------7-7-7-7--------------|
Ab|--9-9-9-9-9--5-5--7-7--9-9-9-9-9--5-5-5-5--9-9-9-9-9--5-5-5-5--5-5-5-7-7-7-|
Eb|--7-7-7-7-7--3-3--5-5--7-7-7-7-7--3-3------7-7-7-7-7--5-5-5-5--3-3-3-5-5-5-|

(riff 5)
eb|----------------------------|
Bb|----------------------------|
Gb|----------------------------|
Db|--7-7-7-7-7-7-7-7--6-5------|
Ab|--5-5-5-5-5-5-5-5--4-3--7---|
Eb|------------------------5---|
(PM) . . . . . . . .

order:
intro      2x
riff 2     3x
riff 3     1x
riff 4     2x
riff 5     2x
intro      2x
riff 2     3x
riff 3     1x
riff 4     2x
riff 5     2x
intro      4x
outro      1x(the outro is just a G chord with feedback)


| PM Palm mute
| /  slide up
| \  slide down
| h  hammer-on
| p  pull-off
| ~  vibrato
| +  harmonic
| x  Mute note
===============================================================================
Comments