Misfits - Crawling Eye Chords & Tabs

 

Crawling Eye Chords & Tabs

Misfits Chords & Tabs

Version: 1 Type: Tab 0 ratings
1 star 2 stars 3 stars 4 stars 5 stars
comments

Crawling Eye Tab

   
=====Crawling Eye========
  Pt A
1|------------------------------------------------|
2|------------------------------------------------|
3|------------------------------------------------|
4|--------77-66-------2-2-44-------77-66-222-444--|
5|-4-6666-55-44-4-666-0-0-22-4-666-55-44-000-222--|
6|-2-4444-------2-444--------2-444----------------|
  pt B                       ptC
1|-------------------------|---------------------------------------|
2|-------------------------|---------------------------------------|
3|-------------------------|---------------------------------------|
4|-33333-------66666-------|33333----------------------------------|
5|-11111-44444-44444-66666-|11111-44444-6666666666------------6666-|
6|-------22222-------44444-|------22222-4444444444-4444444444-4444-|
 ptD                         ptE
1|--------------------------|-------------------------|
2|--------------------------|-------------------------|
3|--------------------------|-------------------------|
4|33333--------33333----666-|33333-66666--------------|
5|11111-44-666-11111-44-444-|11111-44444-44444-666666-|
6|------22-444-------22-----|------------22222-444444-|
 ptF                                ptG
1|---------------------------------|----------------|
2|---------------------------------|----------------|
3|---------------------------------|----------------|
4|33333-66666----------------------|----------5-4---|
5|11111-44444-44444-66666----------|-44444444-3-2-6-|
6|------------22222-44444-44444444-|--------------4-|

song form:
A-2X's      D- once
B-3X's      F- once
C- once     G-2X's
D- once     A-4X's
E- once
[ Tab from: http://www.guitartabs.cc/tabs/m/misfits/crawling_eye_tab.html ]
Comments