Misfits - Bullet Chords & Tabs

 

Bullet Chords & Tabs

Misfits Chords & Tabs

Version: 4 Type: Tab 0 ratings
1 star 2 stars 3 stars 4 stars 5 stars
comments

Bullet Tab

------------------------------------------------------------
------------------------------------------------------------
------------------------------------------------------------
--3--2--------------------------3333------------------------
--1--0---5------55555555555555--1111------------------------
----------------33333333333333------------------------------
{  intro }      {too mush horror buisness...
[ Tab from: http://www.guitartabs.cc/tabs/m/misfits/bullet_tab_ver_4.html ]
------------------------------------------------------------
------------------------------------------------------------
------------------------------------------------------------
--1--111111111--2-2222--5-----------------------------------
--3--333333333--0-0000--3-----------------------------------
------------------------------------------------------------

     {pre-chorus}
------------------------------------------------------------
------------------------------------------------------------
------------------------------------------------------------
----10-----101010101010---5-555555--3-333333--5-555555------
----8-------8-8-8-8-8-8---3-333333--1-111111--3-333333------
------------------------------------------------------------
                         I'll put a knife right on you...
That's all about..I hope you be able to figure out the timing...
If someone figure out the solo please e-mail me to gromit120@hotmail.com
Comments