Misfits - Bruiser Chords & Tabs

 

Bruiser Chords & Tabs

Misfits Chords & Tabs

Version: 2 Type: Tab 0 ratings
1 star 2 stars 3 stars 4 stars 5 stars
comments

Bruiser Tab

   
This is a really good song that was lucky enough to find a spot
on the latest Cd by The Misifts, "Cuts from the Crypt". I didnt 
take the time to get the rythem exact or show the muffling but 
I'm sure you can figure it out.

Thanks goes out to The Misifts.
Live and die a fiend, enjoy the tab. 

[s = slide (your finger)]
[h = hammer down        ]  
[H = Hold               ]

Intro:
e|--------------------------------------------
B|--------------------------------------------
G|--------------------------------------------  repeat (X2)
D|----5-5-5-5--12-12-12-12--5-5-5-5--7-7-7-7--
A|----5-5-5-5--12-12-12-12--5-5-5-5--7-7-7-7--
E|----7-7-7-7--10-10-10-10--3-3-3-3--5-5-5-5--


Verse:
e|---------------------------------------------
B|---------------------------------------------
G|---------------------------------------------  repeat (X2)
D|-----12-12-12-12--9-9-9-9--5-5-5-5--7-7-7-7--
A|-----12-12-12-12--9-9-9-9--5-5-5-5--7-7-7-7--
E|-----10-10-10-10--7-7-7-7--3-3-3-3--5-5-5-5--
  "ohhh i feel these..."


Chorus:
e|------------------------------------------------
B|------------------------------------------------
G|------------------------------------------------ repeat (X2)
D|-----12-12-12-12--5-5--7--12-12-12-----5-5-7-7--
A|-----12-12-12-12--5-5--7--12-12-12-----5-5-7-7--
E|-----10-10-10-10--3-3--5--10-10-10--s3-3-3-5-5--
  "ohhh in hell i'll..."
[ Tab from: http://www.guitartabs.cc/tabs/m/misfits/bruiser_tab_ver_2.html ]
Verse:
e|---------------------------------------------
B|---------------------------------------------
G|---------------------------------------------  repeat (X2)
D|-----12-12-12-12--9-9-9-9--5-5-5-5--7-7-7-7--
A|-----12-12-12-12--9-9-9-9--5-5-5-5--7-7-7-7--
E|-----10-10-10-10--7-7-7-7--3-3-3-3--5-5-5-5--
   "Angel of death..."

Chorus:
e|------------------------------------------------
B|------------------------------------------------
G|------------------------------------------------ repeat (X2)
D|-----12-12-12-12--5-5--7--12-12-12-----5-5-7-7--
A|-----12-12-12-12--5-5--7--12-12-12-----5-5-7-7--
E|-----10-10-10-10--3-3--5--10-10-10--s3-3-3-5-5--
  "ohhh in hell i'll..."

Bridge:
e|-----------------------------------------
B|-----------------------------------------
G|-----------------------------------------
D|-----5-5-5-5--2-2-2-2--5-5-5-5--7-7-7-7--
A|-----5-5-5-5--2-2-2-2--5-5-5-5--7-7-7-7--
E|-----3-3-3-3--0-0-0-0--3-3-3-3--5-5-5-5--
  "The pain..."

Chorus:
e|------------------------------------------------
B|------------------------------------------------
G|------------------------------------------------ repeat (X2)
D|-----12-12-12-12--5-5--7--12-12-12-----5-5-7-7--
A|-----12-12-12-12--5-5--7--12-12-12-----5-5-7-7--
E|-----10-10-10-10--3-3--5--10-10-10--s3-3-3-5-5--
  "ohhh in hell i'll..."

Finally:
e|--------------------------------------------
B|--------------------------------------------
G|--------------------------------------------
D|-----12-12-12-12--h5-h5-h5-h5--h7-h7-h7-h7--   repeat (X4)
A|-----12-12-12-12--h5-h5-h5-h5--h7-h7-h7-h7--
E|-----10-10-10-10--h3-h3-h3-h3--h5-h5-h5-h5--

e|--------------
B|--------------
G|--------------
D|-----H12--12--
A|-----H12--12--
E|-----H10--10--

Tabbed by JOT
Comments