Misfits - Astro Zombies Chords & Tabs

 

Astro Zombies Chords & Tabs

Misfits Chords & Tabs

Version: 3 Type: Tab 0 ratings
1 star 2 stars 3 stars 4 stars 5 stars
comments

Astro Zombies Tab

   
-------------------------------------------------------------------------------
			     Astro Zombies - Misfits
-------------------------------------------------------------------------------
Tabbed by: Astrozombie138

Tuning: standard

(intro/outro)
e|--------------------------------------------------|
B|--------------------------------------------------|
G|--------------------------------------------------|
D|--------------------------------------------------|
A|--10-10-10-9-9-9-7-7--5-5-5-5---3-3-3-3-5-5-5-5---|
E|--8--8--8--7-7-7-5-5--3-3-3-3---1-1-1-1-3-3-3-3---|

(riff 2)
e|----------------------------------------------------|
B|----------------------------------------------------|
G|----------------------------------------------------|
D|---------------------10-10-10-----------------------|
A|--10-10-10-10-10-10--8--8--8--3-3-3-3-5-5-5-5-------|
E|--8--8--8--8--8--8------------1-1-1-1-3-3-3-3-------|
[ Tab from: http://www.guitartabs.cc/tabs/m/misfits/astro_zombies_tab_ver_3.html ]
(riff 3)
e|---------------------------------------------------------------------------|
B|---------------------------------------------------------------------------|
G|---------------------------------------------------------------------------|
D|------------------------------------------9-9-9-9-9-9-9-9-9----------------|
A|10-10-10-10-10-10-10-10-7-7-7-7-7-7-7-7-7-7-7-7-7-7-7-7-7-7-3-3-3-3-5-5-5-5|
E|8--8--8--8--8--8--8--8--5-5-5-5-5-5-5-5-5-------------------1-1-1-1-3-3-3-3|

(riff 4)
e|---------------------------------------------------------------------------|
B|---------------------------------------------------------------------------|
G|---------------------------------------------------------------------------|
D|--------------------------------------------7-7-7-7-7-7-7-7-7--------------|
A|--10-10-10-10-10-10-10-10-7-7-7-7-7-7-7-7-7-5-5-5-5-5-5-5-5-5-5-5-5-5-5-5-5|
E|--8--8--8--8--8--8--8--8--5-5-5-5-5-5-5-5-5-------------------3-3-3-3-3-3-3|


order:
intro     2x
riff 2    2x
riff 3    2x
riff 4    2x
riff 2    2x
riff 3    2x
riff 4    2x
riff 2    4x
outro     2x(end on a C and hold)


| /  slide up
| \  slide down
| h  hammer-on
| p  pull-off
| ~  vibrato
| +  harmonic
| x  Mute note
===============================================================================
Comments