Misfits - Astro Zombies Chords & Tabs

 

Astro Zombies Chords & Tabs

Misfits Chords & Tabs

Version: 3 Type: Bass Tab 0 ratings
1 star 2 stars 3 stars 4 stars 5 stars
comments

Astro Zombies Bass Tab

Astro Zombies - Misfits

So i was looking at all the versions of Astro Zombies and i thought to myself, "How in
the hell did this get on here?" Meaning, it's not correct, and if its, they're playing
in the wrong damn octave.  This tab is 100% correct, and i have no idea why any other
Misfits tabs wouldn't be correct since their music is perhaps the easiest crap in the
world to play on Bass.

For more tabs, don't hesitate to email me at:
ScorpDave@aol.com

Figure out your own time. This really takes no talent at all to play ro figure out, so
it shouldn't be a problem as long as you know how to defecate.

Standard EADG Tuning.

G--------------------------|
D--------------------------|
A3332-22-000---------------| X2
E-----------3-33-1111-3333-|

G------------------|
D------------------|
A33333333----------| X2
E--------1111-3333-|
[ Tab from: http://www.guitartabs.cc/tabs/m/misfits/astro_zombies_btab_ver_3.html ]
G---------------------------------|
D----------------2222222233335555-|
A3333333300000000-----------------| X2
E---------------------------------|

G---------------------------------|
D---------------------------------|
A333333330000000055555555---------| X2
E------------------------33333333-|

G------------------|
D------------------|
A33333333----------| X2
E--------1111-3333-|

G---------------------------------|
D----------------2222222233335555-|
A3333333300000000-----------------| X2
E---------------------------------|

G---------------------------------|
D---------------------------------|
A333333330000000055555555---------| X2
E------------------------33333333-|

G------------------|
D------------------|
A33333333----------| X4
E--------1111-3333-|

G--------------------------|
D--------------------------|
A3332-22-000---------------| X2
E-----------3-33-1111-3333-|

G--------------------------------|
D--------------------------------|
A-------------------------------3| X1
E1-1-1-1-1-1-1-1-3-3-3-3-3-3-3-3-|
Comments