Misfits - Angelfuck Chords & Tabs

 

Angelfuck Chords & Tabs

Misfits Chords & Tabs

Version: 1 Type: Bass Tab 0 ratings
1 star 2 stars 3 stars 4 stars 5 stars
comments

Angelfuck Bass Tab

   
Misfits - Angelfuck

Another rocking misfits song.  Real easy to play--Enough said.
And by the way, the bass plays along with the drum beat--Hence why it's not
played in a constistent 12341234. Let ring on 2 and 1.

If you need anything tabbed, don't hesitate to email me at:

ScorpDave@aol.com

Standard Tuning E A D G

Intro (0:01)
G--------------------------------|
D--------------------------------|
A0-00-00-0-00-00-0-00-00-00000000| x1
E--------------------------------|

Verse 1 (0:05)
G---------------------------|
D------------0-00-00-0-00-00|
A0-00-00-0-00---------------| x2
E---------------------------|

Chorus (0:15)
G-----------------------------------------------------------|
D44444444444444-22222222222222-00000000000000-22222222222222|
A-----------------------------------------------------------| x2
E-----------------------------------------------------------|
[ Tab from: http://www.guitartabs.cc/tabs/m/misfits/angelfuck_btab.html ]
Verse 1 (0:26)
G---------------------------|
D------------0-00-00-0-00-00|
A0-00-00-0-00---------------| x2
E---------------------------|

Chorus (0:38)
G-----------------------------------------------------------|
D44444444444444-22222222222222-00000000000000-22222222222222|
A-----------------------------------------------------------| x2
E-----------------------------------------------------------|

Verse 2 (0:47)
G---------------|
D---------------|
A00000000000-55-| x4
E---------------|

Verse 1 (1:00)
G---------------------------|
D------------0-00-00-0-00-00|
A0-00-00-0-00---------------| x2
E---------------------------|


Chorus (1:10)
G-----------------------------------------------------------|
D44444444444444-22222222222222-00000000000000-22222222222222|
A-----------------------------------------------------------| x2
E-----------------------------------------------------------|

Verse 2 (1:21)
G---------------|
D---------------|
A00000000000-55-| x3
E---------------|

Verse 2 (1:29)
G----------------|
D----------------|
A00000000000-550-| x1
E----------------|
Comments