Misfits - American Psycho Chords & Tabs

 

American Psycho Chords & Tabs

Misfits Chords & Tabs

Version: 1 Type: Bass Tab 0 ratings
1 star 2 stars 3 stars 4 stars 5 stars
comments

American Psycho Bass Tab

American Psycho - Misfits
tabbed by: ryan b

Riff A: (3 times)
Ab--4-4-4---------
Eb----------4444--

Riff B: (once)
Ab-------------------
Eb--0-0-0-0h3-3-3-3--

Riff C [really fast!]: (6 times)
Ab--------------3333--------
Eb--1111--4444--------4--3--
[ Tab from: http://www.guitartabs.cc/tabs/m/misfits/american_psycho_btab.html ]
Riff A: (3 times)
Riff B: (once)
Riff C: (6 times)
Riff A: (3 times)
Riff B: (once)

Riff D: (4 times)
Ab--5555-------0-0--
Eb--------3-3-------

Riff E: (3 times)
Ab--5555-------
Eb-------3333--

Riff F: (once)
Ab--5555--44444444--
Eb------------------

Riff C: (6 times)
Riff A: (3 times)
Riff B: (once)
Riff D: (4 times)
Riff E: (3 times)
Riff F: (once)
Riff C: (6 times) - Ending on F (first fret E string)


Comments