Misfits - All Hell Breaks Loose Chords & Tabs

 

All Hell Breaks Loose Chords & Tabs

Misfits Chords & Tabs

Version: 1 Type: Bass Tab 0 ratings
1 star 2 stars 3 stars 4 stars 5 stars
comments

All Hell Breaks Loose Bass Tab

All Hell Breaks Loose - Misfits
tabbed by: ryan b

Don't ask me why I'm getting into old Misfits stuff...

***rest for drums (0:00 - 0:03)***

Riff A: (once)
G----------------------------
D--------------3333----------
A--10\55555555------3-3-1-1--
E----------------------------

Riff B: (5 times)
G----------------------------
D------------3333------------
A--55555555--------3-3--1-1--
E----------------------------
[ Tab from: http://www.guitartabs.cc/tabs/m/misfits/all_hell_breaks_loose_btab.html ]
Riff C: (once) "All hell breaks"
G---------------------------------
D---------------3---3-------------
A------------------------3--------
E---------------------------------

Riff B: (4 times)
Riff C: (once)

Riff D: (once)
A----------------5555----------------3333--
E--00000000-3333-------00000000-3333-------

Riff E: (once)				  "Urrah!"
A----------------5555----------------3333--1--------
E--00000000-3333-------00000000-3333----------------

Riff B: (4 times)
Riff D: (4 times)

Riff F: (once) "All hell breaks loose!"
A---------------3--------5---------------
E-------------------3-----------0--------


Comments