Misfits - Abominable Dr Phibes Chords & Tabs

 

Abominable Dr Phibes Chords & Tabs

Misfits Chords & Tabs

Version: 1 Type: Bass Tab 0 ratings
1 star 2 stars 3 stars 4 stars 5 stars
comments

Abominable Dr Phibes Bass Tab

Abominable Dr.Phibes

Artist:			The Misfits
From The Album:		American Psycho
Tuning/Distortion:	E flat/None
By:			ryan b

Rif #A:	(twice)
Gb--------------------------
Db--------------------------
Ab---------2------------3---
Eb---0----------0-----------
[ Tab from: http://www.guitartabs.cc/tabs/m/misfits/abominable_dr_phibes_btab.html ]
Rif #B:	(once)
Gb------------------------------------
Db------------------------------------
Ab---5--3-----0--2------3--2----------
Eb------------------------------3--5--

Now play Rif #A twice, followed again by Rif #B (once).
Then finish on -

Rif #C:
Gb-------------------
Db-------------------
Ab-------------------
Eb---3-----2-----0---


"They love you when you're on all the covers,
 when you're not they love another..." -Marilyn Manson


Comments