Misfits - 1000000 Years Bc Chords & Tabs

 

1000000 Years Bc Chords & Tabs

Misfits Chords & Tabs

Version: 2 Type: Tab 0 ratings
1 star 2 stars 3 stars 4 stars 5 stars
comments

1000000 Years Bc Tab

   
-------------------------------------------------------------------------------
			     1,000,000 Years B.C. - Misfits
-------------------------------------------------------------------------------
Tabbed by: Astrozombie138

Tuning: 1/2 step down

(intro)
eb|---------------------------------------------------------------------------|
Bb|---------------------------------------------------------------------------|
Gb|---------------------------------------------------------------------------|
Db|--7-7-7-7-7-------------7-7-7-7-7-------------7-7-7-7-7--------------------|
Ab|--5-5-5-5-5--7-7-7-7-7--5-5-5-5-5--7-7-7-7-7--5-5-5-5-5--7-7-7-7-7---------|
Eb|-------------5-5-5-5-5-------------5-5-5-5-5-------------5-5-5-5-5---------|
                                                          
(intro cont.)
eb|-------------------------------------------|
Bb|-------------------------------------------|
Gb|-------------------------------------------|
Db|--7-7-7-7-7--------------------------------|
Ab|--5-5-5-5-5--7-7-7-7-7-7-7-7-7-7-----------|
Eb|-------------5-5-5-5-5-5-5-5-5-5-----------|
(PM)                      . . . . .
[ Tab from: http://www.guitartabs.cc/tabs/m/misfits/1000000_years_bc_tab_ver_2.html ]
(riff 2)
eb|---------------------------------------------------------------------------|
Bb|---------------------------------------------------------------------------|
Gb|---------------------------------------------------------------------------|
Db|--7-7-7-7-7-7-7-7----------------------------------------------------------|
Ab|--5-5-5-5-5-5-5-5--7-7-7-7-7-7-7-7--9-9-9-9-9-9-9--5-5-5-5-5-5--7-7-7-7-7-7|
Eb|-------------------5-5-5-5-5-5-5-5--7-7-7-7-7-7-7--3-3-3-3-3-3--5-5-5-5-5-5|
(PM)         . . . .          . . . .

(riff 3)
eb|-------------------------------------------------|
Bb|-------------------------------------------------|
Gb|-------------------------------------------------|
Db|--7-7-7-7-7-7-7-7-7-7----------------------------|
Ab|--5-5-5-5-5-5-5-5-5-5--9-9-9-9-9-9-9-9-9---------|
Eb|-----------------------7-7-7-7-7-7-7-7-7---------|
(PM)                              . . . . .

(riff 4)(last chords muted sometimes)
eb|-----------------------------------------------|
Bb|-----------------------------------------------|
Gb|-----------------------------------------------|
Db|-----------------------------------------------|
Ab|--5-5-5-5-5-5-5-5-5--7-7-7-7-7-7-7-7-----------|
Eb|--3-3-3-3-3-3-3-3-3--5-5-5-5-5-5-5-5-----------|

(riff 5)
eb|---------------------------------------------------------------------------|
Bb|---------------------------------------------------------------------------|
Gb|---------------------------------------------------------------------------|
Db|--7-7-7-7-7-7-7------------------------------------------------------------|
Ab|--5-5-5-5-5-5-5--9-9-9-9-9-9-9--5-5-5-5-5-5-5-5-5-5--7-7-7-7-7-7-7-7-7-----|
Eb|-----------------7-7-7-7-7-7-7--3-3-3-3-3-3-3-3-3-3--5-5-5-5-5-5-5-5-5-----|



order:
intro    1x
riff 2   2x
riff 3   2x
riff 4   2x
riff 5   1x
riff 2   2x
riff 3   2x
riff 4   2x
riff 5   5x

| /  slide up
| \  slide down
| h  hammer-on
| p  pull-off
| ~  vibrato
| +  harmonic
| x  Mute note
===============================================================================
Comments