Misery Signals - Five Years Chords & Tabs

 

Five Years Chords & Tabs

Misery Signals Chords & Tabs

Version: 1 Type: Tab

Five Years Tab

This is my first tab and if you listen to Misery Signals then you'll know the level they 
at.  I think i did ok.
Ive only been playing a year so im not that good but im gonna try and do track six from 
cd, Worlds and Dreams, next.

* Hammer
" Resonate


Part 1

E ------------12---14-12"-14---12"10-------|
B --6*8"-10*11--------------11"-----10-----|
G -8---------------------------------------|
D -----------------------------------------|
A -----------------------------------------|
E -----------------------------------------|

Part 2
[ Tab from: http://www.guitartabs.cc/tabs/m/misery_signals/five_years_tab.html ]
E ------12-----14--------------12"-14------|
B -10*11--11*12--------10"10*11------12----|
G ----------------11*12--------------------|
D -----------------------------------------|
A -----------------------------------------|
E -----------------------------------------|

E -14---12*10------------------------------|
B ---11"-----10----------------------------|
G -----------------------------------------|
D -----------------------------------------|
A -----------------------------------------|
E -----------------------------------------|


Play Part 1 once through then Part 2 repeats 7 times as the track fades out.

Enjoy