Miserables Los - Al Otro Lado Del Sol Chords & Tabs

 

Al Otro Lado Del Sol Chords & Tabs

Miserables Los Chords & Tabs

Version: 1 Type: Tab 0 ratings
1 star 2 stars 3 stars 4 stars 5 stars
comments

Al Otro Lado Del Sol Tab

   
Intro

    F#m          C#m
e-|--------------------------|--------------------------|
B-|--7----7-9-10-9-7--5----5-|--------------------------|
G-|----------------------6---|-6--9p6--9p6--------------|
D-|--------------------------|--------------------------|
A-|--------------------------|--------------------------|
E-|--------------------------|--------------------------|
    E            B
e-|--------------------------|--------------------------|
B-|--5----5-7-9--7-5--4----4-|--------------------------|
G-|----------------------4---|--------------------------|
D-|--------------------------|--------------------------|
A-|--------------------------|--------------------------|
E-|--------------------------|--------------------------|

play this part two times
F#m          C#m
Desde que tu llegaste a mi
E                B
ya nada ha vuelto a ser gris
[ Tab from: http://www.guitartabs.cc/tabs/m/miserables_los/al_otro_lado_del_sol_tab.html ]
F#m              C#m
no hay soledad ya no hay mas temor
E                   B
tu le has dado a mi vida nuevo sol
F#m                 C#m
hoy por ti yo vuelvo a vivir
E                    B
hoy por ti he vuelto a sentir
F#m              C#m
la ternura que un dia perdi
E                B
contigo ha vuelto y es para ti

play intro two times


iremos al otro lado del sol
donde no exista pena ni rencor
donde el llanto se convierta en una flor
ahi donde el odio se transforma en amor
entre arcoiris quiero verte reir
y sobre nubes cuidare tu dormir
las estrellas por ti brillaran
y su luz siempre te acompanara

play intro two times, than

F#m        C#m

E        D  E

intro another two times



desde que tu llegaste a mi
las sombras se alejaron de aqui
desde que tu llegaste a mi
supe que no podria vivir sin ti

intro another time

Suggestions and corrections are always welcome! 
beyer.mmkcm@t-online.de
Comments