Miscellane - Solstice Story Part I Chords & Tabs

 

Solstice Story Part I Chords & Tabs

Miscellane Chords & Tabs

Version: 1 Type: Tab 0 ratings
1 star 2 stars 3 stars 4 stars 5 stars
comments

Solstice Story Part I Tab

Miscellane - Solstice Story Part I
Album - Painted Palm

This song is ftom slovak band called miscellane i think it's really great so enjoy.



   4/4
    Gtr I
                                  6x
||--------------------------------||-|
||o--------10-10-8--6-5-5-6-5----o||-|
||--7-9-10--7--7-7--5-5-5-5-5-7---||-|
||--7-7--7--7--7-7--5-5-5-5-5-7---||-|
||o-5-5--5--------------------5--o||-|
||--------------------------------||-|


||--5-5-6-6---6---6s8-8-8-5-5---5-----5-----|-|
||o-6-6-6-6---6---6s8-8-8-6-6-----6-----6---|-|
||--7-7-7-7-7---7-7s9-9-9-7-7-7-----7-----5-|-|
||------------------------------------------|-|
||o-----------------------------------------|-|
||------------------------------------------|-|


|-5-5-6-6---6---6s=8-8-8-10-10--||-|
|-6-6-6-6---6---6s=8-8-8-10-10-o||-|
|-7-7-7-7-7---7-7s=9-9-9-11-11--||-|
|-------------------------------||-|
|------------------------------o||-|
|-------------------------------||-|


||--3-----------------------5-5-5-3-----------------|
||o-4-4---------------3-----7-7-7-4-----3-----3-----|
||--5---5---------------3---7-7-7-5-------4-----4---|
||--5-----5-5---5---5-----5-7-7-7-5-(5)-----5-----5-|
||o-3-------5-5---5---------5-5-5-3-----------------|
||----------3---------------------------------------|


|-3------------------------5--||-3---3---3---3-|-3---3---3---3-||--3-----3--------------|
|-4-4----------------3-----7-o||-4---4---3---4-|-4---4---3---4-||o-4-------4-----4------|
|-5---5----------------3---7--||-5---5---3---3-|-5---5---3---3-||--5-(5)-----5-5---5----|
|-5-----5-5---5----5-----5-7--||-5---5---5-----|-5---5---5-----||--5-----------5-----5--|
|-3-------5-5---5----------5-o||---------5-----|---------5-----||o----------------------|
|---------3-------------------||---------3-----|---------3-----||-----------------------|


                                               4x
|-----------------3-----3------||-||-----------------||
|-----------3-----4---4---4---o||-||o---------------o||
|-------------5---3-3-------3--||-||--5---5-------8--||
|-----5---5-----5--------------||-||--5---5---5---8--||
|---5---5---------------------o||-||o-3---3---5---6-o||
|-3----------------------------||-||----------3------||


  PM----------------------------|
|-----------------------------------|
|-----------------------------------|
|-5-5-5-5-5-5-5-5-------8-8-8-8-8---|
|-5-5-5-5-5-5-5-5-5-5-5-8-8-8-8-8---|
|-3-3-3-3-3-3-3-3-5-5-5-6-6-6-6-6---|
|-----------------3-3-3-------------|


             4x
||-----------------||-||-----------------------------||----|
||o---------------o||-||o---------------------------o||----|
||--5---5-------8--||-||--5-5-5-5-5-5-5-5-------8-8--||----|
||--5---5---5---8--||-||--5-5-5-5-5-5-5-5-5-5-5-8-8--||----|
||o-3---3---5---6-o||-||o-3-3-3-3-3-3-3-3-5-5-5-6-6-o||----|
||----------3------||-||------------------3-3-3------||----|


||----------------------------------------------------------------------------|
||o---------------------------------------------------------------------------|
||----------------------------------------------------------------------------|
||----------5---3------------------5---3---------------------------5---5---3--|
||o-3-5-6-3---6---5--6---5---5-6-3---3-----6---5---3---3-5---5-6-3---3---3----|
||---------------------3---3-------------3---3---3---3-----3------------------|


|---------------------------------------------3-3-1--0--||----|
|---------------------------------------------5-5-1--1-o||----|
|-------------------------------------------------------||----|
|------------------5---3--------------------------------||----|
|---6---5---3-6-3----6---5-6---5--------3-5-6----------o||----|
|-3---3---3------------------3---3--3-6-----------------||----|

                                 6:17 this few more times until 6:32 
||-------------||-5---5---5---5-|-5---------|
||o-----------o||-6---6---6---6-|-6---------|
||-------10----||-7---7---7---7-|-7---------|
||--7-10-10-5--||-7---7---7---7-|-7---------|
||o-7-10--8-5-o||-5---5---5---5-|-5---------|
||--5--8----3--||---------------|-----------|


                4x         4x        4x
||----------13--||-||--13--||-||--1--||--|
||o------15----o||-||o-15-o||-||o-2-o||--|
||----14--------||-||--14--||-||--3--||--|
||--0-----------||-||---0--||-||--0--||--|
||o------------o||-||o----o||-||o---o||--|
||--------------||-||------||-||-----||--|

                       7:49
|-5---1---1---3-|-5---1---1---5-||----5-5-5-5-5-5-3-5-6-3-5-5-3-5-3-5-6-5-3-3-3-1-0-0--||--|
|-6---3---1---5-|-6---3---1---6-||o---3-3-3-3-3-3-3-3-3-3-3-3-3-3-3-3-3-3-3-3-3-1-1-3-o||--|
|-7---3---2---5-|-7---3---2---7-||----2-2-2-2-2-2-2-2-2-2-2-2-2-2-2-2-2-2-2-2-2-0-0-2--||--|
|-7---3---3---5-|-7---3---3---7-||--0--------------------------------------------------||--|
|-5---1---3---3-|-5---1---3---5-||o---------------------------------------------------o||--|
|---------1-----|---------1-----||-----------------------------------------------------||--|


               3x
||--5---1---1---3---5--||-5---1---1-|-------------------------------------------------|
||o-6---3---1---5---6-o||-6---3---1-|-------------------------------------------------|
||--7---3---2---5---7--||-7---3---2-|-----------4-----------4-----------------------4-|
||--7---3---3---5---7--||-7---3---3-|-4-5-4-5-4-4-4-5-4-5-4-4-2-4-5-7-5-4-4-5-4-5-4-4-|
||o-5---1---3---3---5-o||-5---1---3-|-4-5-4-5-4-2-4-5-4-5-4-2-2-4-5-7-5-4-4-5-4-5-4-2-|
||----------1----------||---------1-|-2-3-2-3-2---2-3-2-3-2---0-2-3-5-3-2-2-3-2-3-2---|


                                      PM----------------------|
|------------------------------------------------------------------|
|------------------------------------------------------------------|
|-----------4-----------4------------------------------------------|
|-4-5-4-5-4-4-4-5-4-5-4-4-2-4-5-7-5-4------------------------------|
|-4-5-4-5-4-2-4-5-4-5-4-2-2-4-5-7-5-4-2-0-----2-0-----------0------|
|-2-3-2-3-2---2-3-2-3-2---0-2-3-5-3-2-----3-2-----3-2-0-2-3---2----|


|------------------------------------------------|
|------------------------------------------------|
|-----------4-----------4------------------------|
|-4-5-4-5-4-4-4-5-4-5-4-4-2-4-5-7-5-4-4-5-4-5-4--|
|-4-5-4-5-4-2-4-5-4-5-4-2-2-4-5-7-5-4-4-5-4-5-4--|
|-2-3-2-3-2---2-3-2-3-2---0-2-3-5-3-2-2-3-2-3-2--|


|--------------------------------------------|
|--------------------------------------------|
|-4-----------4------------4-----------------|
|-4-4-5-4-5-4-4-4--5-4-5-4-4-2-4-5--7-5-4----|
|-2-4-5-4-5-4-2-4--5-4-5-4-2-2-4-5--7-5-4----|
|---2-3-2-3-2---2--3-2-3-2---0-2-3--5-3-2----|

[ Tab from: http://www.guitartabs.cc/tabs/m/miscellane/solstice_story_part_i_tab.html ]
|-------------------------------------------------||-------------------||----|
|-------------------------------------------------||o-----------------o||----|
|-----------------------5-------------------------||-----------10------||----|
|-6-7-6-7-6-7-9-7-5-2-0-5-----------------------7-||--7---10---10---5--||----|
|-----------------------3-3-5-3-5-3-5-7-5-3-0---7-||o-7---10----8---5-o||----|
|---------------------------------------------3-5-||--5----8--------3--||----|

Solo
   ~~
|-------------------------------------------|
|----------5-8-10-10b11r10-10-8-5-8-----6-8-|
|------5-7--------------------------5-7-----|
|-/7-7--------------------------------------|
|-------------------------------------------|
|-------------------------------------------|


      ~              ~
|------------------------------------------|
|-8b9r8-4-5-4-5-4-5s=7-4-5-4-5-5-5-5p=4----|
|---------------------------------------5--|
|------------------------------------------|
|------------------------------------------|
|------------------------------------------|


  ~ PM----------------|
|-----------------5-7-8-8-8-8p7-8-8p7-|
|-----------5-6-8---------------------|
|-------5-7---------------------------|
|-7-7-7-------------------------------|
|-------------------------------------|
|-------------------------------------|


|---5-7-5----13-12-10-----------13-12-10------------|
|-7-------10-----------13-12-10----------13-12--10--|
|---------------------------------------------------|
|---------------------------------------------------|
|---------------------------------------------------|
|---------------------------------------------------|


|-13-12-10-----------------------------------12-13-15-17-20-|
|----------13-12----10--------------12-13-15----------------|
|----------------12-----------12-14-------------------------|
|----------------------/14-14-------------------------------|
|-----------------------------------------------------------|
|-----------------------------------------------------------|


|-17-17-17-17-17-17-15-----17-15-17-17-17-17-17-17-|
|----------------------17--------------------------|
|--------------------------------------------------|
|--------------------------------------------------|
|--------------------------------------------------|
|--------------------------------------------------|


                  ~~
|-15----15-------------------8-7-5-------8-7-5-|
|----17----17-15-13-15-13-12-------8-6-5-------|
|----------------------------------------------|
|----------------------------------------------|
|----------------------------------------------|
|----------------------------------------------|


|-------8-7-5--------8-7-5------------8-|
|-8-6-5-------8-6--5-------8-6-(5)-6----|
|---------------------------------------|
|---------------------------------------|
|---------------------------------------|
|---------------------------------------|


    ~
|-7-----5-7-7s10-5---5-7-7s10-5-5h7h8-(8)s10-7-8-12-12-13-15-17-|--8----8--------|
|---8-8------------8--------------------------------------------|--8---10---3----|
|---------------------------------------------------------------|--9---10---4----|
|---------------------------------------------------------------|-10---10---5----|
|---------------------------------------------------------------|-10----8---5----|
|---------------------------------------------------------------|--8--------3----|


||------------------------------------------------------------------------------|
||o-----------------------------------------------------------------------------|
||------------------------------------------------------10-----10-----10-----10-|
||--7-----7-----7-----7-----10-----10-----10-----10-----10-----10-----10-----10-|
||o-7-----7-----7-----7-----10-----10-----10-----10------8-8-8--8-8-8--8-8-8--8-|
||--5-5-5-5-5-5-5-5-5-5-5-5--8-8-8--8-8-8--8-8-8--8-8-8-------------------------|


                               3x
|------------------------------||-3---3---5---3---5---3-|-3---3---5---3---5---3---1---3---5----|
|-----------------------------o||-3---5---7---5---7---5-|-3---5---7---5---7---5---3---5---6----|
|------------------------------||-5---5---7---5---7---5-|-5---5---7---5---7---5---3---5---7----|
|-----5-----5-----5-----5------||-5---5---7---5---7---5-|-5---5---7---5---7---5---3---5---7----|
|-8-8-5-----5-----5-----5-----o||-3---3---5---3---5---3-|-3---3---5---3---5---3---1---3---5----|
|-----3-3-3-3-3-3-3-3-3-3-3-3--||-----------------------|--------------------------------------|

            End
|----------------|---------------------------------------------------|----|
|----------------|-6-5h6-5---------8-------5-5-5s6-5-3-----------5---|----|
|-7---10---5---7-|-7-------7-10-10---10-10-5-----------5-5s7---7---7-|----|
|-7---10---5---7-|-7---------10------------5-----------------7-------|----|
|-5----8---3---5-|-5----------8------------3-------------------------|----|
|----------------|---------------------------------------------------|----|


|----------------------------------------------------------------------|
|-6-5s6-5---------8-------5-5-5s6-5-3-----------5-------5-------5-3----|
|-7-------7-10-10---10-10-5-----------5-5s7---7---7---7---7---7---2----|
|-7---------10------------5-----------------7-------7-------7-----0----|
|-5----------8------------3--------------------------------------------|
|----------------------------------------------------------------------|


Tablature Legend
----------------
 h   - hammer-on
 p   - pull-off
 b   - bend
 pb  - pre-bend
 r   - bend release (if no number after the r, then release immediately)
 /\  - slide into or out of (from/to "nowhere")
 s   - legato slide
 S   - shift slide
  - natural harmonic
[n]  - artificial harmonic
n(n) - tapped harmonic
 ~   - vibrato
 tr  - trill
 T   - tap
 TP  - trem. picking
 PM  - palm muting
\n/  - tremolo bar dip; n = amount to dip
 \n  - tremolo bar down
 n/  - tremolo bar up
/n\  - tremolo bar inverted dip
 =   - hold bend; also acts as connecting device for hammers/pulls
   - volume swell (louder/softer)
 x   - on rhythm slash represents muted slash
 o   - on rhythm slash represents single note slash

Misc Legend
-----------
 |  - bar
||  - double bar
||o - repeat start
o|| - repeat end
*|  - double bar (ending)
 :  - bar (freetime)
 $  - Segno
 &  - Coda
Tempo markers -  = BPM(8/16=s8/s16), where s8 = swing 8ths, s16 = swing 16ths


***************************************************************************************
* Generated using Power Tab Editor by Brad Larsen - http://powertab.guitarnetwork.org *
***************************************************************************************
Comments