Misc Your Songs - Yesterday Chords & Tabs

 

Yesterday Chords & Tabs

Misc Your Songs Chords & Tabs

Version: 1 Type: Tab 0 ratings
1 star 2 stars 3 stars 4 stars 5 stars
comments

Yesterday Tab

Song title: Yesterday
Transcribed by : Nano
Written By : For the wounded (Nano,Quinton,Miko)
Tuning:Drop D
Genre: Rhythm Parts... Fillers and Solos not tabbed (yet)

Intro,   Clean w/Delay

e|--6---6---6--6---2--2---2--2--8---8----9---9----8---8---4---4--------------|
B|----4---4---4--4--2---2---2-2---6---6----7---7----6---6---2---2------------|
G|---------------------------------------------------------------------------|
D|---------------------------------------------------------------------------|
A|---------------------------------------------------------------------------|
D|---------------------------------------------------------------------------|

e|-6---6--6---6---6--6--6--6--2---2--2--2----8---9---8----4------------------|
B|----4--4- 4---4---4--4--4-4---2---2--2--2----6---7---6-----2---------------|
G|---------------------------------------------------------------------------|
D|---------------------------------------------------------------------------|
A|---------------------------------------------------------------------------|
D|---------------------------------------------------------------------------|
 
                   Cut On Distortion ==========================>
e|-6-6-6-6-6-6-6-6-------------------6-6-6-6-6-6-6-6-------------------------|
B|-4-4-4-4-4-4-4-4-------------------4-4-4-4-4-4-4-4-------------------------|
G|---------------------------------------------------------------------------|
D|---------------------------------------------------------------------------|
A|---------------------------------------------------------------------------|
D|---------------------------------------------------------------------------|

e|---------------------------------------------------------------------------|
B|---------------------------------------------------------------------------|
G|---------------------------------------------------------------------------|
D|-7-7-7-7-7-7-\---9-9-9-9-9-9---/-2-2-2-2-2-2-\---4-4-4-4-4-4-4-------------|
A|-7-7-7-7-7-7--\--9-9-9-9-9-9--/--2-2-2-2-2-2--\--4-4-4-4-4-4-4-------------|
D|-7-7-7-7-7-7---\-9-9-9-9-9-9-/---2-2-2-2-2-2---\-4-4-4-4-4-4-4-------------|

e|---------------------------------------------------------------------------|
B|---------------------------------------------------------------------------|
G|--6-6-6-6-6----------------------------------------------------------------|
D|--6-6-6-6-6--6-\-7-7-7-7-7-7-7-7-/-2-2-2-2-2-2--\-6-6-6-6-6-6-6-6----------|
A|--4-4-4-4-4--6-\-7-7-7-7-7-7-7-7-/-2-2-2-2-2-2--\-6-6-6-6-6-6-6-6----------|
D|-------------6-\-7-7-7-7-7-7-7-7-/-2-2-2-2-2-2--\-6-6-6-6-6-6-6-6----------|

e|---------------------------------------------------------------------------|
B|---------------------------------------------------------------------------|
G|--6-6-6-6-6----------------------------------------------------------------|
D|--6-6-6-6-6--6-\-7-7-7-7-7-7-7-7-/-9-9-9-9-9--\-2-\-4-4-4-4-4-4-4----------|
A|--4-4-4-4-4--6-\-7-7-7-7-7-7-7-7-/-9-9-9-9-9--\-2-\-4-4-4-4-4-4-4----------|
D|-------------6-\-7-7-7-7-7-7-7-7-/-9-9-9-9-9--\-2-\-4-4-4-4-4-4-4----------|

e|---------------------------------------------------------------------------|
B|---------------------------------------------------------------------------|
G|--6-6-6-6-6----------------------------------------------------------------|
D|--6-6-6-6-6--6-\-7-7-7-7-7-7-7-7-/-2-2-2-2-2-2-\-6--2-4--------------------|
A|--4-4-4-4-4--6-\-7-7-7-7-7-7-7-7-/-2-2-2-2-2-2-\-6--2-4--------------------|
D|-------------6-\-7-7-7-7-7-7-7-7-/-2-2-2-2-2-2-\-6--2-4--------------------|

[ Tab from: http://www.guitartabs.cc/tabs/m/misc_your_songs/yesterday_tab.html ]
       Verse 1
e|---------------------------------------------------------------------------|
B|---------------------------------------------------------------------------|
G|-6-6-6---------------------------------------------------------------------|
D|-6-6-6--6-\-7-7-7-7-\-9-9-9-/-2-4-4-4--------------------------------------|
A|-4-4-4--6-\-7-7-7-7-\-9-9-9-/-2-4-4-4--------------------------------------|
D|--------6-\-7-7-7-7-\-9-9-9-/-2-4-4-4--------------------------------------|
     m m        m m       m m       m m
     Yesterday....

e|---------------------------------------------------------------------------|
B|---------------------------------------------------------------------------|
G|-6-6-6---------------------------------------------------------------------|
D|-6-6-6--6-\-7-7-7-7-/-2-2-2-2-/-6-6-6--------------------------------------|
A|-4-4-4--6-\-7-7-7-7-/-2-2-2-2-/-6-6-6--------------------------------------|
D|--------6-\-7-7-7-7-/-2-2-2-2-/-6-6-6--------------------------------------|
     m m        m m       m m       m m


e|---------------------------------------------------------------------------|
B|---------------------------------------------------------------------------|
G|-6-6-6---------------------------------------------------------------------|
D|-6-6-6--6-\-7-7-7-7-\-9-9-9-/-2-4-4-4--------------------------------------|
A|-4-4-4--6-\-7-7-7-7-\-9-9-9-/-2-4-4-4--------------------------------------|
D|--------6-\-7-7-7-7-\-9-9-9-/-2-4-4-4--------------------------------------|
     m m        m m       m m       m m

e|---------------------------------------------------------------------------|
B|---------------------------------------------------------------------------|
G|-6-6-6---------------------------------------------------------------------|
D|-6-6-6--6-\-7-7-7-7-/-2-2-2-2-2-2-2-2-/-6-6-6-6-6-6-6-6-6------------------|
A|-4-4-4--6-\-7-7-7-7-/-2-2-2-2-2-2-2-2-/-6-6-6-6-6-6-6-6-6------------------|
D|--------6-\-7-7-7-7-/-2-2-2-2-2-2-2-2-/-6-6-6-6-6-6-6-6-6------------------|
     m m        m m              

   Chorus                                                                 x3
e|---------------------------------------------------------------------------|
B|---------------------------------------------------------------------------|
G|-6-6-6-6-6----------------------8-8-8-\-9-9-9-/-8-8-8-\-4-4-4-\-66666666---|
D|-6-6-6-6-6---0-2-2-2-2-2-2-2-2--------\-------/-------\-------\------------|
A|-4-4-4-4-4---0-2-2-2-2-2-2-2-2--6-6-6-\-7-7-7-/-6-6-6-\-2-2-2-\-44444444---|
D|-------------0-2-2-2-2-2-2-2-2---------------------------------------------|



e|---------------------------------------------------------------------------|
B|---------------------------------------------------------------------------|
G|-6-6-6-6-6----------------------8-8-8-\-9-9-9-/-8-8-8-\-4-4-4-\-6~---------|
D|-6-6-6-6-6---0-2-2-2-2-2-2-2-2--------\-------/-------\-------\------------|
A|-4-4-4-4-4---0-2-2-2-2-2-2-2-2--6-6-6-\-7-7-7-/-6-6-6-\-2-2-2-\-4~---------|
D|-------------0-2-2-2-2-2-2-2-2---------------------------------------------|


   Verse 2 Distortion w\Delay Palm Muted 

e|---------------------------------------------------------------------------|
B|---------------------------------------------------------------------------|
G|---------------------------------------------------------------------------|
D|--6-----------------/--4---------------------------------------------------|
A|--4-4-44-44-44-4-4--/--2-2-22-22-22-2-2---2----------------4---------------|
D|------------------------------------------2-2-22-22-22-22--4-4-44-44-44-4-4|
Comments