Misc Your Songs - X-3 Chords & Tabs

 

X-3 Chords & Tabs

Misc Your Songs Chords & Tabs

Version: 1 Type: Tab 0 ratings
1 star 2 stars 3 stars 4 stars 5 stars
comments

X-3 Tab

Play this and send me your responses. If you send me an email I will email you back.
powerlead221@hotmail.com

X-3

Guitar one (intro)
e-----3---3---5---3---3-----7---5---3---5---3-
b---5---5---5---5---5-----5---5---5---5---5---
g-4---4---4---4---4-----4---4---4---4---4-----
d---------------------------------------------
a---------------------------------------------
e---------------------------------------------
______________________________________________________________________

(still the intro)
e--7---7---5---5---3---3-2---2-2--\
b--5---5---3---3---1---1-0---0-0---\
g-----------------------------------\  X2
d-----------------------------------/
a----------------------------------/
e---------------------------------/
______________________________________________________________________

Verse

Guitar two (plays this through whole song except exert)
e--------------------------------------------
b--------8--------8--------5--------4--------
g------0--------0--------0--------0----------
d----9--------7--------5--------4------------
a--7--------5--------3--------2--------------                         
e--------------------------------------------

Guitar one
e-----3---3---5---3---3-----7---5---3---5---3-
b---5---5---5---5---5-----5---5---5---5---5---
g-4---4---4---4---4-----4---4---4---4---4-----
d---------------------------------------------
a---------------------------------------------
e---------------------------------------------






e--7---7---5---5---3---3-2---2-2--\
b--5---5---3---3---1---1-0---0-0---\
g-----------------------------------\  X2
d-----------------------------------/
a----------------------------------/
e---------------------------------/
______________________________________________________________________
                                   
                                    /\                                
                                   /  \     
                                  / || \     2X
                                    ||       
                                    ||
______________________________________________________________________
                                      
Guitar one  (in pattern with Guitar two)
chorus                                       
[ Tab from: http://www.guitartabs.cc/tabs/m/misc_your_songs/x_3_tab.html ]
e------------------------\
b--8--8--7--7--5--5--4----\
g--0--0--0--0--0--0--0-----\  X2
d--9--9--7--7--5--5--4-----/
a--7--7--5--5--3--3--2----/
e------------------------/ 

e--------------------xxxx3-3--xxxx5-5---
b--xxxx8-8--xxxx7-7--xxxx3-3--xxxxx-x---
g--xxxx0-0--xxxx0-0--xxxx3-3--xxxx0-0--- 
d--xxxx9-9--xxxx7-7--xxxx5-5--xxxx4-4---
a--xxxx7-7--xxxx5-5--xxxx3-3--xxxx2-2--- 
e---------------------------------------

______________________________________________________________________                                 
                                  /\
                                 /  \
                                / || \  X2
                                  ||
                                  ||
______________________________________________________________________

Guitar one
exert

e---------------------------------------------------------------
b---------------------------------------------------------------
g---------------------------------------------------------------
d----17---17---17---17---15---15---15---15---14---14---14---14--  
a--15---15---15---15---15---15---15---15---15---15---15---15----  
e---------------------------------------------------------------

e---------------------------------------------------------------
b---------------------------------------------------------------
g---------------------------------------------------------------
d-----17---17---17---17---15---15---15---15---14---14---14---14-
a--15---15---15---15---15---15---15---15---15---15---15---15----
e---------------------------------------------------------------

e--8--8--8---8---8--8--8--8--8--8--8--8-\
b-10-10-10-10--8--8--8--8--7--7--7--7----\  X2
g-----------------------------------------\
d-----------------------------------------/
a----------------------------------------/
e---------------------------------------/

Guitar two 

exert
e--8--8--8---8---8--8--8--8--8--8--8--8-\
b-10-10-10-10--8--8--8--8--7--7--7--7----\  (play through whole exert)
g-----------------------------------------\
d-----------------------------------------/
a----------------------------------------/
e---------------------------------------/





The pattern goes:
intro 
verse 
chorus
verse 
chorus
exert
chorus
intro to fade
Comments