Misc Your Songs - Why Chords & Tabs

 

Why Chords & Tabs

Misc Your Songs Chords & Tabs

Version: 1 Type: Tab 0 ratings
1 star 2 stars 3 stars 4 stars 5 stars
comments

Why Tab

this is a good tune i made, so i hope u get the tune im sebding here

tuning: standard

all of this is 1 tune
[ Tab from: http://www.guitartabs.cc/tabs/m/misc_your_songs/why_tab.html ]
dont play this too fast or too slow
E|------------------------------------------------------------|
B|-9-9--9-9-10---9-9--9-9-10------9-9--10-10-7---9-9--10-10-7-|
G|-x-x--x-x--x---x-x--x-x--x------x-x---x--x-x---x-x---x--x-x-|
D|-x-x--x-x--x---x-x--x-x--x------x-x---x--x-x---x-x---x--x-x-|
A|-7-7--7-7--7---7-7--7-7--7------7-7---7--7-7---7-7---7--7-7-|
E|------------------------------------------------------------|
 
E|--..3x..----|--..3x..----|
B|------------|------------|
G|-9-9--9-9-9-|-9-9--9-9-9-|
D|-x-x--x-x-x-|-9-9--9-9-9-|
A|-7-7--7-7-7-|-7-7--7-7-7-|
E|------------|------------|

E|------------------------------------------------------------|
B|------------------------------------------------------------|
G|------------------------------------------------------------|
D|-9-9--9-9-9-9/7-7-7--7-7-7-7/11-11-11--11-11-11--9-9--9-9-9-|
A|-9-9--9-9-9-9/7-7-7--7-7-7-7/11-11-11--11-11-11--9-9--9-9-9-|
E|-7-7--7-7-7-7/5-5-5--5-5-5-5/9---9--9---9--9--9--7-7--7-7-7-|

enjoy
Comments