Misc Your Songs - Walking Backwards Chords & Tabs

 

Walking Backwards Chords & Tabs

Misc Your Songs Chords & Tabs

Version: 1 Type: Bass Tab 0 ratings
1 star 2 stars 3 stars 4 stars 5 stars
comments

Walking Backwards Bass Tab

just made this up
< slide down

Beginning

D---------------------------------------
G---------------------------------------
A-0-0-0-0-2-3-3-3-3-2-------------------
E---------------------3<2-2-2-2-1-1-1-1-

Middle
[ Tab from: http://www.guitartabs.cc/tabs/m/misc_your_songs/walking_backwards_btab.html ]
D---------------------------------------
G---------------------------------------
A-000000000223333333322-----------------
E----------------------3<222222211111111

Ending

D---------------------------------------
G---------------------------------------
A-0----3--------------------------------
E-------2----1--------------------------

Beginning x 4
Middle x 6
Ending x 1

contact me at vector5555555555@yahoo.com
Comments