Misc Your Songs - Urmother Chords & Tabs

 

Urmother Chords & Tabs

Misc Your Songs Chords & Tabs

Version: 1 Type: Bass Tab 0 ratings
1 star 2 stars 3 stars 4 stars 5 stars
comments

Urmother Bass Tab

Tabbed By: JOE_BLOW

I made this up lets call it URMOTHER, i dont think it will qualify 
but its good to play over and over again it sounds pretty good.
hit these notes really hard and loud it sounds great
[ Tab from: http://www.guitartabs.cc/tabs/m/misc_your_songs/urmother_btab.html ]
G---------------------------------------------------------------------------
D---------------------------------------------------------------------------
A---------------------1-1-11-11-0-0-00-00h----------------------------------
E-0-0-00-00-1-1-11-11-------------------------------------------------------

or the first part backwards backwards i perfer this one

G---------------------------------------------------------------------------
D---------------------------------------------------------------------------
A---------------------1-1-11-11-0-0-00-00h----------------------------------
E-1-1-11-11-0-0-00-00-------------------------------------------------------

h= hold it

screw around with 

contact me at vector5555555555@yahoo.com
Comments