Misc Your Songs - Underwood Jonathan - Isabella Chords & Tabs

 

Underwood Jonathan - Isabella Chords & Tabs

Misc Your Songs Chords & Tabs

Version: 1 Type: Tab 0 ratings
1 star 2 stars 3 stars 4 stars 5 stars
comments

Underwood Jonathan - Isabella Tab

Jonathan Underwood : Isabella

I wrote this song for my future little girl. These are my hopes for her.


E-0--0--0----0--0--0--0--3--3--3--5--5--5--1
B-0--0--0----0--0--0--0--3--3--3--5--5--5--1 Repeat this
G-------------------------------------------
D------------------------------------------- four times.
A-------------------------------------------
E-------------------------------------------

Part 1
E----------------------------
B----------------------------       Repeat this
G----------------------------
D------4------------2--------       four times.
A--------2--3--4------3--2-0-
E-2--------------------------

Part 2
E----------------------------------------------------------
B----------------------------------------------------------
G----------------------------------------------------------
D----------------2-2-2-----------------------2-2-2---------
A-0-0-0--0-0-0-0-------3-3-3-2---------------------3-3-3-2-
E------------------------------4-4-4--4-4-4-4--------------

E----------------------------------------------------------
B----------------------------------------------------------
G----------------------------------------------------------
D----------------2-2-2------------------------2-2-2--------
A----------------------3-3-3-2----------------------3-3-3-2
E-3-3-3--3-3-3-3---------------2-2-2--2-2-2-2--------------
[ Tab from: http://www.guitartabs.cc/tabs/m/misc_your_songs/underwood_jonathan_isabella_tab.html ]
Part 3
E---------------------------------------------------
B---------------------------------------------------
G---------------------------------------------------
D-------------------------------------2---3---0---2-
A-0-2-3--0-2-3--0-2-3--0-2-3--0-2-3-----------------
E---------------------------------------------------

Part 4
E------------------------------------
B------------------------------------       
G------------------------------------
D------4------------2----------------       
A--------2--3--4------3--2-0---------
E-2--------------------------2---1---

       Isabella may God bess you
Part   May His will be on your mind               
  1    May you repent of all you sins
       We pray that eternal life you will find

       We will allways love you
Part   No matter what you do
  2    We will always love you
       This we pray

       We love you
Part   We love you
  3    We love you
       We love you
       We love you

       Please put God first


       Isabella may you life be complete
Part   May all your needs be fulfilled
  1    May you never listen to Satan
       We pray that if your sick that you will be healed

       We will allways love you
Part   No matter what you do
  2    We will always love you
       This we pray

       We love you
Part   We love you
  3    We love you
       We love you
       We love you

       Please put God first

       Isabella may you be strong
Part   May you have knowledge beyond your years
  1    May you be wise in all of your ways
       We pray that God is all you will fear

       We will allways love you
Part   No matter what you do
  2    We will always love you
       This we pray

       We love you
Part   We love you
   3   We love you
       We love you
       We love you

Part   Please put God first
  4
Comments