Misc Your Songs - The Hallway Smells Like Ass Chords & Tabs

 

The Hallway Smells Like Ass Chords & Tabs

Misc Your Songs Chords & Tabs

Version: 1 Type: Tab 0 ratings
1 star 2 stars 3 stars 4 stars 5 stars
comments

The Hallway Smells Like Ass Tab

 This is a song made up by Merk Keller
 
  Intro
 1----------------------------
 2----------------------------
 3----------------------------
 4----------------------------
 5-3--2----------3--2---------
 6-1--0--X-X-X---1--0--X-X-X--

  Intro part two
               P.M.-----          P.m.---------
 1----------------------------------------------
 2---------------------------------------------- 
 3----------------------------------------------
 4--3--3-3--2--2-2-2-2-2--3-3-3-3-2-2-2-2-2-2-2-
 5--3--3-3--2--2-2-2-2-2--3-3-3-3-2-2-2-2-2-2-2-
 6--1--1-1--0--0-0-0-0-0--1-1-1-1-0-0-0-0-0-0-0-
[ Tab from: http://www.guitartabs.cc/tabs/m/misc_your_songs/the_hallway_smells_like_ass_tab.html ]
 VERSE P.m. throughout
 1------------------------------------------------
 2------------------------------------------------
 3------------------------------------------------
 4---------------------------13-13-13-14-14-X-X---
 5------------------------------------------------
 6--11--X-X--11--11--X-X-X-X----------------------

 Chorus same for outro
 1--0-0-0-0-0-1-1-1-1-1-1-6-6-6-6-6-6-6-6-6-
 2--0-0-0-0-0-1-1-1-1-1-1-8-8-8-8-8-8-8-8-8-
 3--1-1-1-1-1-2-2-2-2-2-2-8-8-8-8-8-8-8-8-8-
 4--2-2-2-2-2-3-3-3-3-3-3-8-8-8-8-8-8-8-8-8-
 5--2-2-2-2-2-3-3-3-3-3-3-6-6-6-6-6-6-6-6-6-
 6--0-0-0-0-0-1-1-1-1-1-1-6-6-6-6-6-6-6-6-6-

  that's the song. its kind of dumb, but remember
 when youre playing it that merk keller could 
 be a gay ass monkey on heroin.
 peace out to my homies 
 later....
Comments