Misc Your Songs - Sucka - Rock All Out Chords & Tabs

 

Sucka - Rock All Out Chords & Tabs

Misc Your Songs Chords & Tabs

Version: 1 Type: Tab 0 ratings
1 star 2 stars 3 stars 4 stars 5 stars
comments

Sucka - Rock All Out Tab

   
-------------------------------------------------------------------------------
			     Rock All Out - Sucka                          
I am a one man artist.  I just started and wanted to get my music out into the world.
I am out of Georgia.  City will not be given though.  I play all kinds of music:
rock, country, oldies, and christian music.  I play rock most of the time.  If
you want me to be in your band just e-mail me and leave your phone number.  I
do not play the really hardcore rock stuff though, just to tell you.


Tabbed by:i100percentweird
Email:i100percentweird@aol.com

Tuning:E A D G B E

This song is played with the overdrive on all the time.  You can use any sound
of overdrive that you want to. Whatever sounds best for you. Play at the speed
that sounds best for you.  

intro 3x's
e|---------------------------------------------------------------------------|
B|-----3---------------------------------------------------------------------|
G|--------2--3h--3h--3h------------------------------------------------------|
D|-0-0-----------------------------------------------------------------------|
A|---------------------------------------------------------------------------|
E|---------------------------------------------------------------------------|
[ Tab from: http://www.guitartabs.cc/tabs/m/misc_your_songs/sucka_rock_all_out_tab.html ]
prelude
e|---------------------------------------------------------------------------|
B|-------3-------------------------------------------------------------------|
G|----------2----------------------------------------------------------------|
D|--0-0----------------------------------------------------------------------|
A|---------------------------------------------------------------------------|
E|---------------------------------------------------------------------------|

pre-verse 3x's
e|---------------------------------------------------------------------------|
B|---------------------------------------------------------------------------|
G|---------------------------------------------------------------------------|
D|-----------------0--3------------------------------------------------------|
A|-3--0--3--0--3-------------------------------------------------------------|
E|---------------------------------------------------------------------------|

verse 3x's
e|-7--7-------9-9-9-9-9-------12--12-------9-9-9-9-9-------------------------|
B|-7--7-------9-9-9-9-9-------12--12-------9-9-9-9-9-------------------------|
G|-7--7-------9-9-9-9-9-------12--12-------9-9-9-9-9-------------------------|
D|-7--7-------9-9-9-9-9-------12--12-------9-9-9-9-9-------------------------|
A|-7--7-------9-9-9-9-9-------12--12-------9-9-9-9-9-------------------------|
E|-7--7-------9-9-9-9-9-------12--12-------9-9-9-9-9-------------------------|
REPEAT WHOLE SONG

That's about it. 

| /  slide up
| \  slide down
| h  hammer-on
| p  pull-off
| ~  vibrato
| +  harmonic
| x  Mute note
===============================================================================
Comments