Misc Your Songs - Stairway To Rock Chords & Tabs

 

Stairway To Rock Chords & Tabs

Misc Your Songs Chords & Tabs

Version: 1 Type: Tab 0 ratings
1 star 2 stars 3 stars 4 stars 5 stars
comments

Stairway To Rock Tab

   
This is kind of a mix between stairway to heaven and rock and roll, both by Led Zeppelin.

| /  slide up
| \  slide down
| h  hammer-on
| p  pull-off
| ~  vibrato
| +  harmonic
| x  Mute note


Artist:The Rebels
Song:Stairway to Rock
Album:(unnamed)
Tabbed by:Bob
Email:freedoggy77@yahoo.com

Intro-

e|----5-7--7-8-0-5-7-7---0----3----|
B|---5----5----------7--1--0-3-----|
G|--5----5-----------7-2--0--------|
D|-7----6----5--------3------------|
A|---------------------------------|
E|-----------------------------3-5-|

Verse1-
[ Tab from: http://www.guitartabs.cc/tabs/m/misc_your_songs/stairway_to_rock_tab.html ]
e|-------------------------------------------------|
B|-------------------------------------------------|
G|-----------------------7-7-------------7-7-------|
D|-5-7-5-7-5-7-7-7-7-7-7-7-7-10-10-10-10-7-7-10-5-7|
A|-5-7-5-7-5-7-7-7-7-7-7-5-5-10-10-10-10-5-5-10-5-7|
E|-3-5-3-5-3-5-5-5-5-5-5-----8--8--8--8------8--3-5|

He tried to climb the stairway, but there were too many steps...

Solo-

e|-14-17-12-9-----|
B|-----------10-12| x 4

Outro-

e|----5-7--7-8-0-5-7-7---0----3----|
B|---5----5----------7--1--0-3-----|
G|--5----5-----------7-2--0--------|
D|-7----6----5--------3------------|
A|---------------------------------|
E|-----------------------------3-5-|

Order-
Introx3
Verse1
Solox3
verse1
Intro x1
Solox2
Outro
Comments