Misc Your Songs - Spanish Song I Made Up Chords & Tabs

 

Spanish Song I Made Up Chords & Tabs

Misc Your Songs Chords & Tabs

Version: 1 Type: Tab 0 ratings
1 star 2 stars 3 stars 4 stars 5 stars
comments

Spanish Song I Made Up Tab

Here goes nothin'

  Intro
e]--------------------------------------------------------------------|
B|------9--9--9-----9---9---9-----------------------------------------|
G|--------------------------------------------------------------------|
D|--------------------------------------------------------------------|
A|-6/7/8--8--8--8-----------------------------------------------------|
E|----------------9---9---9---9---------------------------------------|
  Verse ( i havent put the strumming pattern in or that it contains mutes in )
e|-8-8------9--9---------------------------------------|-----/11-etc
B|-9-9------9--9---------------------------------------|-----/11-
G|10-10-etc-10-10--etc---------------------------------|-----/12-play this 
D|10-10-----11-11--------------------------------------|-----/13-second time 
A|-8-8------11-11--------------------------------------|-----/13-round
E|-8-8------9--9---------------------------------------|-----/11-
[ Tab from: http://www.guitartabs.cc/tabs/m/misc_your_songs/spanish_song_i_made_up_tab.html ]
  Chorus ( bridge bass=A]--00-1-3-[ x4
e|-8--------------------------------------------------------------------------|
B|-9--------------------------------------------------------------------------|
G|-10-etc--Am-etc---E-etc-----------------------------------------------------|
D|-10-------------------------------------------------------------------------|
A|-8--------------------------------------------------------------------------|
E|-8--------------------------------------------------------------------------|

 Solo

e|----------------------------------------------------------------------|
B|----------------------------------------------------------------------|
G|----------------------------------------------------------------------|
D|-------0-2-3-5b-3-3-2--2----------------------------------------------|
A|-0-2-3----------------3--3-2-0----------------------------------------|
E|----------------------------------------------------------------------|

Bass solo

A]---0-3-2--2h3-5-[ x4
Comments